  0
SECTION
  2
HEADER
  9
$ACADVER
  1
AC1015
  9
$ACADMAINTVER
 70
     6
  9
$DWGCODEPAGE
  3
ANSI_1252
  9
$INSBASE
 10
0.0
 20
0.0
 30
0.0
  9
$EXTMIN
 10
0.0
 20
0.0
 30
0.0
  9
$EXTMAX
 10
17.0
 20
11.0
 30
0.0
  9
$LIMMIN
 10
0.0
 20
0.0
  9
$LIMMAX
 10
17.0
 20
11.0
  9
$ORTHOMODE
 70
     0
  9
$REGENMODE
 70
     1
  9
$FILLMODE
 70
     1
  9
$QTEXTMODE
 70
     0
  9
$MIRRTEXT
 70
     1
  9
$LTSCALE
 40
1.0
  9
$ATTMODE
 70
     1
  9
$TEXTSIZE
 40
0.125
  9
$TRACEWID
 40
0.05
  9
$TEXTSTYLE
  7
Standard
  9
$CLAYER
  8
0
  9
$CELTYPE
  6
ByLayer
  9
$CECOLOR
 62
   256
  9
$CELTSCALE
 40
1.0
  9
$DISPSILH
 70
     0
  9
$DIMSCALE
 40
1.0
  9
$DIMASZ
 40
0.13
  9
$DIMEXO
 40
0.05
  9
$DIMDLI
 40
0.38
  9
$DIMRND
 40
0.0
  9
$DIMDLE
 40
0.0
  9
$DIMEXE
 40
0.125
  9
$DIMTP
 40
0.0
  9
$DIMTM
 40
0.0
  9
$DIMTXT
 40
0.125
  9
$DIMCEN
 40
0.09
  9
$DIMTSZ
 40
0.0
  9
$DIMTOL
 70
     0
  9
$DIMLIM
 70
     0
  9
$DIMTIH
 70
     1
  9
$DIMTOH
 70
     1
  9
$DIMSE1
 70
     0
  9
$DIMSE2
 70
     0
  9
$DIMTAD
 70
     0
  9
$DIMZIN
 70
     0
  9
$DIMBLK
  1

  9
$DIMASO
 70
     1
  9
$DIMSHO
 70
     1
  9
$DIMPOST
  1

  9
$DIMAPOST
  1

  9
$DIMALT
 70
     0
  9
$DIMALTD
 70
     2
  9
$DIMALTF
 40
25.4
  9
$DIMLFAC
 40
1.0
  9
$DIMTOFL
 70
     0
  9
$DIMTVP
 40
0.0
  9
$DIMTIX
 70
     0
  9
$DIMSOXD
 70
     0
  9
$DIMSAH
 70
     0
  9
$DIMBLK1
  1

  9
$DIMBLK2
  1

  9
$DIMSTYLE
  2
Standard
  9
$DIMCLRD
 70
     0
  9
$DIMCLRE
 70
     0
  9
$DIMCLRT
 70
     0
  9
$DIMTFAC
 40
1.0
  9
$DIMGAP
 40
0.06
  9
$DIMJUST
 70
     0
  9
$DIMSD1
 70
     0
  9
$DIMSD2
 70
     0
  9
$DIMTOLJ
 70
     1
  9
$DIMTZIN
 70
     0
  9
$DIMALTZ
 70
     0
  9
$DIMALTTZ
 70
     0
  9
$DIMUPT
 70
     0
  9
$DIMDEC
 70
     3
  9
$DIMTDEC
 70
     3
  9
$DIMALTU
 70
     2
  9
$DIMALTTD
 70
     2
  9
$DIMTXSTY
  7
Standard
  9
$DIMAUNIT
 70
     0
  9
$DIMADEC
 70
     2
  9
$DIMALTRND
 40
0.0
  9
$DIMAZIN
 70
     0
  9
$DIMDSEP
 70
    46
  9
$DIMATFIT
 70
     3
  9
$DIMFRAC
 70
     0
  9
$DIMLDRBLK
  1

  9
$DIMLUNIT
 70
     2
  9
$DIMLWD
 70
    -2
  9
$DIMLWE
 70
    -2
  9
$DIMTMOVE
 70
     0
  9
$LUNITS
 70
     2
  9
$LUPREC
 70
     2
  9
$SKETCHINC
 40
0.1
  9
$FILLETRAD
 40
0.5
  9
$AUNITS
 70
     0
  9
$AUPREC
 70
     2
  9
$MENU
  1
.
  9
$ELEVATION
 40
0.0
  9
$PELEVATION
 40
0.0
  9
$THICKNESS
 40
0.0
  9
$LIMCHECK
 70
     0
  9
$CHAMFERA
 40
0.0
  9
$CHAMFERB
 40
0.0
  9
$CHAMFERC
 40
0.0
  9
$CHAMFERD
 40
0.0
  9
$SKPOLY
 70
     0
  9
$TDCREATE
 40
2459672.502526239
  9
$TDUCREATE
 40
2459672.710859572
  9
$TDUPDATE
 40
2459672.502528113
  9
$TDUUPDATE
 40
2459672.710861447
  9
$TDINDWG
 40
0.0000000116
  9
$TDUSRTIMER
 40
0.0000000116
  9
$USRTIMER
 70
     1
  9
$ANGBASE
 50
0.0
  9
$ANGDIR
 70
     0
  9
$PDMODE
 70
     0
  9
$PDSIZE
 40
-1.0
  9
$PLINEWID
 40
0.0
  9
$SPLFRAME
 70
     0
  9
$SPLINETYPE
 70
     6
  9
$SPLINESEGS
 70
     8
  9
$HANDSEED
  5
194
  9
$SURFTAB1
 70
     6
  9
$SURFTAB2
 70
     6
  9
$SURFTYPE
 70
     6
  9
$SURFU
 70
     6
  9
$SURFV
 70
     6
  9
$UCSBASE
  2

  9
$UCSNAME
  2

  9
$UCSORG
 10
0.0
 20
0.0
 30
0.0
  9
$UCSXDIR
 10
1.0
 20
0.0
 30
0.0
  9
$UCSYDIR
 10
0.0
 20
1.0
 30
0.0
  9
$UCSORTHOREF
  2

  9
$UCSORTHOVIEW
 70
     0
  9
$UCSORGTOP
 10
0.0
 20
0.0
 30
0.0
  9
$UCSORGBOTTOM
 10
0.0
 20
0.0
 30
0.0
  9
$UCSORGLEFT
 10
0.0
 20
0.0
 30
0.0
  9
$UCSORGRIGHT
 10
0.0
 20
0.0
 30
0.0
  9
$UCSORGFRONT
 10
0.0
 20
0.0
 30
0.0
  9
$UCSORGBACK
 10
0.0
 20
0.0
 30
0.0
  9
$PUCSBASE
  2

  9
$PUCSNAME
  2

  9
$PUCSORG
 10
0.0
 20
0.0
 30
0.0
  9
$PUCSXDIR
 10
1.0
 20
0.0
 30
0.0
  9
$PUCSYDIR
 10
0.0
 20
1.0
 30
0.0
  9
$PUCSORTHOREF
  2

  9
$PUCSORTHOVIEW
 70
     0
  9
$PUCSORGTOP
 10
0.0
 20
0.0
 30
0.0
  9
$PUCSORGBOTTOM
 10
0.0
 20
0.0
 30
0.0
  9
$PUCSORGLEFT
 10
0.0
 20
0.0
 30
0.0
  9
$PUCSORGRIGHT
 10
0.0
 20
0.0
 30
0.0
  9
$PUCSORGFRONT
 10
0.0
 20
0.0
 30
0.0
  9
$PUCSORGBACK
 10
0.0
 20
0.0
 30
0.0
  9
$USERI1
 70
     0
  9
$USERI2
 70
     0
  9
$USERI3
 70
     0
  9
$USERI4
 70
     0
  9
$USERI5
 70
     0
  9
$USERR1
 40
0.0
  9
$USERR2
 40
0.0
  9
$USERR3
 40
0.0
  9
$USERR4
 40
0.0
  9
$USERR5
 40
0.0
  9
$WORLDVIEW
 70
     1
  9
$SHADEDGE
 70
     3
  9
$SHADEDIF
 70
    70
  9
$TILEMODE
 70
     1
  9
$MAXACTVP
 70
    64
  9
$PINSBASE
 10
0.0
 20
0.0
 30
0.0
  9
$PLIMCHECK
 70
     0
  9
$PEXTMIN
 10
1.0000000000E+20
 20
1.0000000000E+20
 30
1.0000000000E+20
  9
$PEXTMAX
 10
-1.0000000000E+20
 20
-1.0000000000E+20
 30
-1.0000000000E+20
  9
$PLIMMIN
 10
0.0
 20
0.0
  9
$PLIMMAX
 10
12.0
 20
9.0
  9
$UNITMODE
 70
     0
  9
$VISRETAIN
 70
     1
  9
$PLINEGEN
 70
     0
  9
$PSLTSCALE
 70
     1
  9
$TREEDEPTH
 70
  3020
  9
$CMLSTYLE
  2
Standard
  9
$CMLJUST
 70
     0
  9
$CMLSCALE
 40
1.0
  9
$PROXYGRAPHICS
 70
     1
  9
$MEASUREMENT
 70
     0
  9
$CELWEIGHT
370
    -1
  9
$ENDCAPS
280
     0
  9
$JOINSTYLE
280
     0
  9
$LWDISPLAY
290
     1
  9
$INSUNITS
 70
     1
  9
$HYPERLINKBASE
  1

  9
$STYLESHEET
  1

  9
$XEDIT
290
     1
  9
$CEPSNTYPE
380
     0
  9
$PSTYLEMODE
290
     1
  9
$FINGERPRINTGUID
  2
{107D9137-4BB5-4883-B23D-D8F5E993D2D3}
  9
$VERSIONGUID
  2
{FAEB1C32-E019-11D5-929B-00C0DF256EC4}
  9
$EXTNAMES
290
     1
  9
$PSVPSCALE
 40
0.0
  9
$OLESTARTUP
290
     0
  0
ENDSEC
  0
SECTION
  2
CLASSES
  0
CLASS
  1
ACDBDICTIONARYWDFLT
  2
AcDbDictionaryWithDefault
  3
ObjectDBX Classes
 90
        0
280
     0
281
     0
  0
CLASS
  1
VISUALSTYLE
  2
AcDbVisualStyle
  3
ObjectDBX Classes
 90
     4095
280
     0
281
     0
  0
CLASS
  1
MATERIAL
  2
AcDbMaterial
  3
ObjectDBX Classes
 90
     1153
280
     0
281
     0
  0
CLASS
  1
SCALE
  2
AcDbScale
  3
ObjectDBX Classes
 90
     1153
280
     0
281
     0
  0
CLASS
  1
TABLESTYLE
  2
AcDbTableStyle
  3
ObjectDBX Classes
 90
     4095
280
     0
281
     0
  0
CLASS
  1
MLEADERSTYLE
  2
AcDbMLeaderStyle
  3
ACDB_MLEADERSTYLE_CLASS
 90
     4095
280
     0
281
     0
  0
CLASS
  1
SUN
  2
AcDbSun
  3
SCENEOE
 90
     1153
280
     0
281
     0
  0
CLASS
  1
ACDBPLACEHOLDER
  2
AcDbPlaceHolder
  3
ObjectDBX Classes
 90
        0
280
     0
281
     0
  0
CLASS
  1
LAYOUT
  2
AcDbLayout
  3
ObjectDBX Classes
 90
        0
280
     0
281
     0
  0
ENDSEC
  0
SECTION
  2
TABLES
  0
TABLE
  2
VPORT
  5
8
330
0
100
AcDbSymbolTable
 70
     1
  0
VPORT
  5
29
330
8
100
AcDbSymbolTableRecord
100
AcDbViewportTableRecord
  2
*Active
 70
     0
 10
0.0
 20
0.0
 11
1.0
 21
1.0
 12
8.5
 22
5.5
 13
0.0
 23
0.0
 14
0.5
 24
0.5
 15
0.5
 25
0.5
 16
0.0
 26
0.0
 36
1.0
 17
0.0
 27
0.0
 37
0.0
 40
11.0
 41
1.5454545455
 42
50.0
 43
0.0
 44
0.0
 50
0.0
 51
0.0
 71
     0
 72
  2000
 73
     1
 74
     3
 75
     0
 76
     0
 77
     0
 78
     0
281
     0
 65
     1
110
0.0
120
0.0
130
0.0
111
1.0
121
0.0
131
0.0
112
0.0
122
1.0
132
0.0
 79
     0
146
0.0
  0
ENDTAB
  0
TABLE
  2
LTYPE
  5
5
330
0
100
AcDbSymbolTable
 70
     6
  0
LTYPE
  5
14
330
5
100
AcDbSymbolTableRecord
100
AcDbLinetypeTableRecord
  2
ByBlock
 70
     0
  3

 72
    65
 73
     0
 40
0.0
  0
LTYPE
  5
15
330
5
100
AcDbSymbolTableRecord
100
AcDbLinetypeTableRecord
  2
ByLayer
 70
     0
  3

 72
    65
 73
     0
 40
0.0
  0
LTYPE
  5
16
330
5
100
AcDbSymbolTableRecord
100
AcDbLinetypeTableRecord
  2
Continuous
 70
     0
  3
Solid line
 72
    65
 73
     0
 40
0.0
  0
LTYPE
  5
6E
330
5
100
AcDbSymbolTableRecord
100
AcDbLinetypeTableRecord
  2
HIDDEN
 70
     0
  3
Hidden __ __ __ __ __ __ __ __ __ __ __ __ __ __
 72
    65
 73
     2
 40
0.075
 49
0.05
 74
     0
 49
-0.025
 74
     0
  0
LTYPE
  5
6F
330
5
100
AcDbSymbolTableRecord
100
AcDbLinetypeTableRecord
  2
PHANTOM
 70
     0
  3
Phantom ______  __  __  ______  __  __  ______
 72
    65
 73
     6
 40
0.5
 49
0.25
 74
     0
 49
-0.05
 74
     0
 49
0.05
 74
     0
 49
-0.05
 74
     0
 49
0.05
 74
     0
 49
-0.05
 74
     0
  0
LTYPE
  5
70
330
5
100
AcDbSymbolTableRecord
100
AcDbLinetypeTableRecord
  2
CENTER
 70
     0
  3
Center ____ _ ____ _ ____ _ ____ _ ____ _ ____
 72
    65
 73
     4
 40
0.4
 49
0.25
 74
     0
 49
-0.05
 74
     0
 49
0.05
 74
     0
 49
-0.05
 74
     0
  0
LTYPE
  5
71
330
5
100
AcDbSymbolTableRecord
100
AcDbLinetypeTableRecord
  2
CENTERX2
 70
     0
  3
Center (2x) ________  __  ________  __  _____
 72
    65
 73
     4
 40
0.8
 49
0.5
 74
     0
 49
-0.1
 74
     0
 49
0.1
 74
     0
 49
-0.1
 74
     0
  0
LTYPE
  5
72
330
5
100
AcDbSymbolTableRecord
100
AcDbLinetypeTableRecord
  2
DOT2
 70
     0
  3
Dot (.5x) ........................................
 72
    65
 73
     2
 40
0.025
 49
0.0
 74
     0
 49
-0.025
 74
     0
  0
ENDTAB
  0
TABLE
  2
LAYER
  5
2
330
0
100
AcDbSymbolTable
 70
     2
  0
LAYER
  5
10
330
2
100
AcDbSymbolTableRecord
100
AcDbLayerTableRecord
  2
0
 70
     0
 62
     7
  6
Continuous
370
    -3
390
F
  0
LAYER
  5
73
330
2
100
AcDbSymbolTableRecord
100
AcDbLayerTableRecord
  2
FORMAT
 70
     0
 62
     7
  6
Continuous
370
    -3
390
F
  0
ENDTAB
  0
TABLE
  2
STYLE
  5
3
330
0
100
AcDbSymbolTable
 70
     4
  0
STYLE
  5
11
330
3
100
AcDbSymbolTableRecord
100
AcDbTextStyleTableRecord
  2
Standard
 70
     0
 40
0.0
 41
1.0
 50
0.0
 71
     0
 42
0.125
  3
txt
  4

  0
STYLE
  5
A4
330
3
100
AcDbSymbolTableRecord
100
AcDbTextStyleTableRecord
  2
SLDTEXTSTYLE0
 70
     0
 40
0.0
 41
0.75
 50
0.0
 71
     0
 42
0.125
  3
TXT
  4

  0
STYLE
  5
B3
330
3
100
AcDbSymbolTableRecord
100
AcDbTextStyleTableRecord
  2
SLDTEXTSTYLE1
 70
     0
 40
0.0
 41
0.6875
 50
0.0
 71
     0
 42
0.125
  3
TXT
  4

  0
STYLE
  5
B9
330
3
100
AcDbSymbolTableRecord
100
AcDbTextStyleTableRecord
  2
SLDTEXTSTYLE2
 70
     0
 40
0.0
 41
0.6944444444
 50
0.0
 71
     0
 42
0.125
  3
TXT
  4

  0
ENDTAB
  0
TABLE
  2
VIEW
  5
6
330
0
100
AcDbSymbolTable
 70
     0
  0
ENDTAB
  0
TABLE
  2
UCS
  5
7
330
0
100
AcDbSymbolTable
 70
     0
  0
ENDTAB
  0
TABLE
  2
APPID
  5
9
330
0
100
AcDbSymbolTable
 70
     1
  0
APPID
  5
12
330
9
100
AcDbSymbolTableRecord
100
AcDbRegAppTableRecord
  2
ACAD
 70
     0
  0
ENDTAB
  0
TABLE
  2
DIMSTYLE
  5
A
330
0
100
AcDbSymbolTable
 70
     1
100
AcDbDimStyleTable
  0
DIMSTYLE
105
27
330
A
100
AcDbSymbolTableRecord
100
AcDbDimStyleTableRecord
  2
Standard
 70
     0
178
     0
340
11
  0
ENDTAB
  0
TABLE
  2
BLOCK_RECORD
  5
1
330
0
100
AcDbSymbolTable
 70
     4
  0
BLOCK_RECORD
  5
1F
330
1
100
AcDbSymbolTableRecord
100
AcDbBlockTableRecord
  2
*Model_Space
340
22
  0
BLOCK_RECORD
  5
1B
330
1
100
AcDbSymbolTableRecord
100
AcDbBlockTableRecord
  2
*Paper_Space
340
1E
  0
BLOCK_RECORD
  5
23
330
1
100
AcDbSymbolTableRecord
100
AcDbBlockTableRecord
  2
*Paper_Space0
340
26
  0
BLOCK_RECORD
  5
C8
330
1
100
AcDbSymbolTableRecord
100
AcDbBlockTableRecord
  2
SW_NOTE_0
340
0
102
{BLKREFS
331
CD
102
}
  0
BLOCK_RECORD
  5
CE
330
1
100
AcDbSymbolTableRecord
100
AcDbBlockTableRecord
  2
SW_NOTE_1
340
0
102
{BLKREFS
331
DD
102
}
  0
BLOCK_RECORD
  5
E2
330
1
100
AcDbSymbolTableRecord
100
AcDbBlockTableRecord
  2
SW_NOTE_2
340
0
102
{BLKREFS
331
EC
102
}
  0
ENDTAB
  0
ENDSEC
  0
SECTION
  2
BLOCKS
  0
BLOCK
  5
20
330
1F
100
AcDbEntity
  8
0
100
AcDbBlockBegin
  2
*Model_Space
 70
     0
 10
0.0
 20
0.0
 30
0.0
  3
*Model_Space
  1

  0
ENDBLK
  5
21
330
1F
100
AcDbEntity
  8
0
100
AcDbBlockEnd
  0
BLOCK
  5
1C
330
1B
100
AcDbEntity
 67
     1
  8
0
100
AcDbBlockBegin
  2
*Paper_Space
 70
     0
 10
0.0
 20
0.0
 30
0.0
  3
*Paper_Space
  1

  0
ENDBLK
  5
1D
330
1B
100
AcDbEntity
 67
     1
  8
0
100
AcDbBlockEnd
  0
BLOCK
  5
24
330
23
100
AcDbEntity
  8
0
100
AcDbBlockBegin
  2
*Paper_Space0
 70
     0
 10
0.0
 20
0.0
 30
0.0
  3
*Paper_Space0
  1

  0
ENDBLK
  5
25
330
23
100
AcDbEntity
  8
0
100
AcDbBlockEnd
  0
BLOCK
  5
C9
330
C8
100
AcDbEntity
  8
0
100
AcDbBlockBegin
  2
SW_NOTE_0
 70
     0
 10
0.0
 20
0.0
 30
0.0
  3
SW_NOTE_0
  1

  0
MTEXT
  5
CB
330
C8
100
AcDbEntity
  8
0
  6
Continuous
 62
     0
370
     0
100
AcDbMText
 10
0.0
 20
0.0773440644
 30
0.0
 40
0.06
 41
0.0
 71
     1
 72
     1
  1
INTERPRET GEOMETRIC
  7
SLDTEXTSTYLE0
 73
     1
 44
1.0
  0
MTEXT
  5
CC
330
C8
100
AcDbEntity
  8
0
  6
Continuous
 62
     0
370
     0
100
AcDbMText
 10
0.0
 20
-0.0220260102
 30
0.0
 40
0.06
 41
0.0
 71
     1
 72
     1
  1
TOLERANCING PER:
  7
SLDTEXTSTYLE0
 73
     1
 44
1.0
  0
ENDBLK
  5
CA
330
C8
100
AcDbEntity
  8
0
100
AcDbBlockEnd
  0
BLOCK
  5
CF
330
CE
100
AcDbEntity
  8
0
100
AcDbBlockBegin
  2
SW_NOTE_1
 70
     0
 10
0.0
 20
0.0
 30
0.0
  3
SW_NOTE_1
  1

  0
MTEXT
  5
D1
330
CE
100
AcDbEntity
  8
0
  6
Continuous
 62
     0
370
     0
100
AcDbMText
 10
0.0
 20
0.0837894031
 30
0.0
 40
0.065
 41
0.0
 71
     1
 72
     1
  1
DIMENSIONS ARE IN INCHES
  7
SLDTEXTSTYLE0
 73
     1
 44
1.0
  0
MTEXT
  5
D2
330
CE
100
AcDbEntity
  8
0
  6
Continuous
 62
     0
370
     0
100
AcDbMText
 10
0.0
 20
-0.0205806729
 30
0.0
 40
0.065
 41
0.0
 71
     1
 72
     1
  1
TOLERANCES:
  7
SLDTEXTSTYLE0
 73
     1
 44
1.0
  0
MTEXT
  5
D3
330
CE
100
AcDbEntity
  8
0
  6
Continuous
 62
     0
370
     0
100
AcDbMText
 10
0.0
 20
-0.1249507489
 30
0.0
 40
0.065
 41
0.0
 71
     1
 72
     1
  1
FRACTIONAL
  7
SLDTEXTSTYLE0
 73
     1
 44
1.0
  0
MTEXT
  5
D4
330
CE
100
AcDbEntity
  8
0
  6
Continuous
 62
     0
370
     0
100
AcDbMText
 10
0.5175850508
 20
-0.1249507489
 30
0.0
 40
0.065
 41
0.0
 71
     1
 72
     1
  1
%%p
  7
SLDTEXTSTYLE0
 73
     1
 44
1.0
  0
MTEXT
  5
D5
330
CE
100
AcDbEntity
  8
0
  6
Continuous
 62
     0
370
     0
100
AcDbMText
 10
0.0
 20
-0.2293208248
 30
0.0
 40
0.065
 41
0.0
 71
     1
 72
     1
  1
ANGULAR: MACH
  7
SLDTEXTSTYLE0
 73
     1
 44
1.0
  0
MTEXT
  5
D6
330
CE
100
AcDbEntity
  8
0
  6
Continuous
 62
     0
370
     0
100
AcDbMText
 10
0.7233732769
 20
-0.2293208248
 30
0.0
 40
0.065
 41
0.0
 71
     1
 72
     1
  1
%%p
  7
SLDTEXTSTYLE0
 73
     1
 44
1.0
  0
MTEXT
  5
D7
330
CE
100
AcDbEntity
  8
0
  6
Continuous
 62
     0
370
     0
100
AcDbMText
 10
0.9071607683
 20
-0.2293208248
 30
0.0
 40
0.065
 41
0.0
 71
     1
 72
     1
  1
BEND
  7
SLDTEXTSTYLE0
 73
     1
 44
1.0
  0
MTEXT
  5
D8
330
CE
100
AcDbEntity
  8
0
  6
Continuous
 62
     0
370
     0
100
AcDbMText
 10
1.1478412867
 20
-0.2293208248
 30
0.0
 40
0.065
 41
0.0
 71
     1
 72
     1
  1
%%p
  7
SLDTEXTSTYLE0
 73
     1
 44
1.0
  0
MTEXT
  5
D9
330
CE
100
AcDbEntity
  8
0
  6
Continuous
 62
     0
370
     0
100
AcDbMText
 10
0.0
 20
-0.3336909008
 30
0.0
 40
0.065
 41
0.0
 71
     1
 72
     1
  1
TWO PLACE DECIMAL
  7
SLDTEXTSTYLE0
 73
     1
 44
1.0
  0
MTEXT
  5
DA
330
CE
100
AcDbEntity
  8
0
  6
Continuous
 62
     0
370
     0
100
AcDbMText
 10
0.9794349188
 20
-0.3336909008
 30
0.0
 40
0.065
 41
0.0
 71
     1
 72
     1
  1
%%p
  7
SLDTEXTSTYLE0
 73
     1
 44
1.0
  0
MTEXT
  5
DB
330
CE
100
AcDbEntity
  8
0
  6
Continuous
 62
     0
370
     0
100
AcDbMText
 10
0.0
 20
-0.4380609768
 30
0.0
 40
0.065
 41
0.0
 71
     1
 72
     1
  1
THREE PLACE DECIMAL
  7
SLDTEXTSTYLE0
 73
     1
 44
1.0
  0
MTEXT
  5
DC
330
CE
100
AcDbEntity
  8
0
  6
Continuous
 62
     0
370
     0
100
AcDbMText
 10
0.9738037905
 20
-0.4380609768
 30
0.0
 40
0.065
 41
0.0
 71
     1
 72
     1
  1
%%p
  7
SLDTEXTSTYLE0
 73
     1
 44
1.0
  0
ENDBLK
  5
D0
330
CE
100
AcDbEntity
  8
0
100
AcDbBlockEnd
  0
BLOCK
  5
E3
330
E2
100
AcDbEntity
  8
0
100
AcDbBlockBegin
  2
SW_NOTE_2
 70
     0
 10
0.0
 20
0.0
 30
0.0
  3
SW_NOTE_2
  1

  0
MTEXT
  5
E5
330
E2
100
AcDbEntity
  8
0
  6
Continuous
 62
     0
370
     0
100
AcDbMText
 10
0.0
 20
0.0773440644
 30
0.0
 40
0.06
 41
0.0
 71
     1
 72
     1
  1
THE INFORMATION CONTAINED IN THIS
  7
SLDTEXTSTYLE0
 73
     1
 44
1.0
  0
MTEXT
  5
E6
330
E2
100
AcDbEntity
  8
0
  6
Continuous
 62
     0
370
     0
100
AcDbMText
 10
0.0
 20
-0.0220260102
 30
0.0
 40
0.06
 41
0.0
 71
     1
 72
     1
  1
DRAWING IS THE SOLE PROPERTY OF
  7
SLDTEXTSTYLE0
 73
     1
 44
1.0
  0
MTEXT
  5
E7
330
E2
100
AcDbEntity
  8
0
  6
Continuous
 62
     0
370
     0
100
AcDbMText
 10
0.0
 20
-0.1213960848
 30
0.0
 40
0.06
 41
0.0
 71
     1
 72
     1
  1
<INSERT COMPANY NAME HERE>.  ANY
  7
SLDTEXTSTYLE0
 73
     1
 44
1.0
  0
MTEXT
  5
E8
330
E2
100
AcDbEntity
  8
0
  6
Continuous
 62
     0
370
     0
100
AcDbMText
 10
0.0
 20
-0.2207661593
 30
0.0
 40
0.06
 41
0.0
 71
     1
 72
     1
  1
REPRODUCTION IN PART OR AS A WHOLE
  7
SLDTEXTSTYLE0
 73
     1
 44
1.0
  0
MTEXT
  5
E9
330
E2
100
AcDbEntity
  8
0
  6
Continuous
 62
     0
370
     0
100
AcDbMText
 10
0.0
 20
-0.3201362339
 30
0.0
 40
0.06
 41
0.0
 71
     1
 72
     1
  1
WITHOUT THE WRITTEN PERMISSION OF
  7
SLDTEXTSTYLE0
 73
     1
 44
1.0
  0
MTEXT
  5
EA
330
E2
100
AcDbEntity
  8
0
  6
Continuous
 62
     0
370
     0
100
AcDbMText
 10
0.0
 20
-0.4195063085
 30
0.0
 40
0.06
 41
0.0
 71
     1
 72
     1
  1
<INSERT COMPANY NAME HERE> IS
  7
SLDTEXTSTYLE0
 73
     1
 44
1.0
  0
MTEXT
  5
EB
330
E2
100
AcDbEntity
  8
0
  6
Continuous
 62
     0
370
     0
100
AcDbMText
 10
0.0
 20
-0.518876383
 30
0.0
 40
0.06
 41
0.0
 71
     1
 72
     1
  1
PROHIBITED.
  7
SLDTEXTSTYLE0
 73
     1
 44
1.0
  0
ENDBLK
  5
E4
330
E2
100
AcDbEntity
  8
0
100
AcDbBlockEnd
  0
ENDSEC
  0
SECTION
  2
ENTITIES
  0
LINE
  5
74
330
1F
100
AcDbEntity
  8
0
  6
Continuous
 62
     7
370
     0
100
AcDbLine
 10
16.5
 20
2.4643479659
 30
0.0
 11
16.5
 21
0.5
 31
0.0
  0
LINE
  5
75
330
1F
100
AcDbEntity
  8
0
  6
Continuous
 62
     7
370
     0
100
AcDbLine
 10
16.5
 20
0.5
 30
0.0
 11
7.0538982943
 21
0.5
 31
0.0
  0
LINE
  5
76
330
1F
100
AcDbEntity
  8
0
  6
Continuous
 62
     7
100
AcDbLine
 10
0.5
 20
10.5
 30
0.0
 11
0.5
 21
0.5
 31
0.0
  0
LINE
  5
77
330
1F
100
AcDbEntity
  8
0
  6
Continuous
 62
     7
100
AcDbLine
 10
0.5
 20
0.5
 30
0.0
 11
16.5
 21
0.5
 31
0.0
  0
LINE
  5
78
330
1F
100
AcDbEntity
  8
0
  6
Continuous
 62
     7
100
AcDbLine
 10
16.5
 20
0.5
 30
0.0
 11
16.5
 21
10.5
 31
0.0
  0
LINE
  5
79
330
1F
100
AcDbEntity
  8
0
  6
Continuous
 62
     7
100
AcDbLine
 10
16.5
 20
10.5
 30
0.0
 11
0.5
 21
10.5
 31
0.0
  0
LINE
  5
7A
330
1F
100
AcDbEntity
  8
0
  6
Continuous
 62
     7
100
AcDbLine
 10
8.5
 20
10.5
 30
0.0
 11
8.5
 21
10.875
 31
0.0
  0
LINE
  5
7B
330
1F
100
AcDbEntity
  8
0
  6
Continuous
 62
     7
100
AcDbLine
 10
16.5
 20
5.5
 30
0.0
 11
16.875
 21
5.5
 31
0.0
  0
LINE
  5
7C
330
1F
100
AcDbEntity
  8
0
  6
Continuous
 62
     7
100
AcDbLine
 10
8.5
 20
0.5
 30
0.0
 11
8.5
 21
0.125
 31
0.0
  0
LINE
  5
7D
330
1F
100
AcDbEntity
  8
0
  6
Continuous
 62
     7
100
AcDbLine
 10
0.5
 20
5.5
 30
0.0
 11
0.125
 21
5.5
 31
0.0
  0
LINE
  5
7E
330
1F
100
AcDbEntity
  8
0
  6
Continuous
 62
     7
370
     0
100
AcDbLine
 10
10.6682571288
 20
0.5
 30
0.0
 11
10.6682571288
 21
2.4643479659
 31
0.0
  0
LINE
  5
7F
330
1F
100
AcDbEntity
  8
0
  6
Continuous
 62
     7
370
     0
100
AcDbLine
 10
8.6911075579
 20
2.4643479659
 30
0.0
 11
16.5
 21
2.4643479659
 31
0.0
  0
LINE
  5
80
330
1F
100
AcDbEntity
  8
0
  6
Continuous
 62
     7
370
     0
100
AcDbLine
 10
12.0452023081
 20
2.4643479659
 30
0.0
 11
12.0452023081
 21
0.5
 31
0.0
  0
LINE
  5
81
330
1F
100
AcDbEntity
  8
0
  6
Continuous
 62
     7
370
     0
100
AcDbLine
 10
13.7412800044
 20
2.4643479659
 30
0.0
 11
13.7412800044
 21
0.5
 31
0.0
  0
LINE
  5
82
330
1F
100
AcDbEntity
  8
0
  6
Continuous
 62
     7
370
     0
100
AcDbLine
 10
13.7412800044
 20
0.7128858394
 30
0.0
 11
16.5
 21
0.7128858394
 31
0.0
  0
LINE
  5
83
330
1F
100
AcDbEntity
  8
0
  6
Continuous
 62
     7
370
     0
100
AcDbLine
 10
13.7412800044
 20
1.2198630749
 30
0.0
 11
16.5
 21
1.2198630749
 31
0.0
  0
LINE
  5
84
330
1F
100
AcDbEntity
  8
0
  6
Continuous
 62
     7
370
     0
100
AcDbLine
 10
13.7412800044
 20
2.0971972001
 30
0.0
 11
16.5
 21
2.0971972001
 31
0.0
  0
LINE
  5
85
330
1F
100
AcDbEntity
  8
0
  6
Continuous
 62
     7
370
     0
100
AcDbLine
 10
14.136824752
 20
1.2198630749
 30
0.0
 11
14.136824752
 21
0.7128858394
 31
0.0
  0
LINE
  5
86
330
1F
100
AcDbEntity
  8
0
  6
Continuous
 62
     7
370
     0
100
AcDbLine
 10
14.5644165176
 20
0.7128858394
 30
0.0
 11
14.5644165176
 21
0.5
 31
0.0
  0
LINE
  5
87
330
1F
100
AcDbEntity
  8
0
  6
Continuous
 62
     7
370
     0
100
AcDbLine
 10
15.9280647045
 20
1.2198630749
 30
0.0
 11
15.9280647045
 21
0.7128858394
 31
0.0
  0
LINE
  5
88
330
1F
100
AcDbEntity
  8
0
  6
Continuous
 62
     7
370
     0
100
AcDbLine
 10
15.5363286631
 20
0.7128858394
 30
0.0
 11
15.5363286631
 21
0.5
 31
0.0
  0
LINE
  5
89
330
1F
100
AcDbEntity
  8
0
  6
Continuous
 62
     7
370
     0
100
AcDbLine
 10
8.6911075579
 20
0.6962748291
 30
0.0
 11
12.0452023081
 21
0.6962748291
 31
0.0
  0
LINE
  5
8A
330
1F
100
AcDbEntity
  8
0
  6
Continuous
 62
     7
370
     0
100
AcDbLine
 10
12.0452023081
 20
1.9018479659
 30
0.0
 11
13.7412800044
 21
1.9018479659
 31
0.0
  0
LINE
  5
8B
330
1F
100
AcDbEntity
  8
0
  6
Continuous
 62
     7
370
     0
100
AcDbLine
 10
12.0452023081
 20
2.0893479659
 30
0.0
 11
13.7412800044
 21
2.0893479659
 31
0.0
  0
LINE
  5
8C
330
1F
100
AcDbEntity
  8
0
  6
Continuous
 62
     7
370
     0
100
AcDbLine
 10
12.0452023081
 20
2.2768479659
 30
0.0
 11
13.7412800044
 21
2.2768479659
 31
0.0
  0
LINE
  5
8D
330
1F
100
AcDbEntity
  8
0
  6
Continuous
 62
     7
370
     0
100
AcDbLine
 10
13.7412800044
 20
1.3393479659
 30
0.0
 11
12.0497082514
 21
1.3393479659
 31
0.0
  0
LINE
  5
8E
330
1F
100
AcDbEntity
  8
0
  6
Continuous
 62
     7
370
     0
100
AcDbLine
 10
13.2622310388
 20
2.4643479659
 30
0.0
 11
13.2622310388
 21
1.3393479659
 31
0.0
  0
LINE
  5
8F
330
1F
100
AcDbEntity
  8
0
  6
Continuous
 62
     7
370
     0
100
AcDbLine
 10
12.7937038342
 20
2.4643479659
 30
0.0
 11
12.7937038342
 21
1.3393479659
 31
0.0
  0
LINE
  5
90
330
1F
100
AcDbEntity
  8
0
  6
Continuous
 62
     7
370
     0
100
AcDbLine
 10
10.6682571288
 20
0.9637233598
 30
0.0
 11
12.0452023081
 21
0.9637233598
 31
0.0
  0
LINE
  5
91
330
1F
100
AcDbEntity
  8
0
  6
Continuous
 62
     7
370
     0
100
AcDbLine
 10
10.6682571288
 20
1.2337233598
 30
0.0
 11
12.0497082514
 21
1.2337233598
 31
0.0
  0
LINE
  5
92
330
1F
100
AcDbEntity
  8
0
  6
Continuous
 62
     7
370
     0
100
AcDbLine
 10
8.6911075579
 20
0.5
 30
0.0
 11
8.6911075579
 21
2.4643479659
 31
0.0
  0
LINE
  5
93
330
1F
100
AcDbEntity
  8
0
  6
Continuous
 62
     7
370
     0
100
AcDbLine
 10
8.6911075579
 20
1.2143479659
 30
0.0
 11
10.6682571288
 21
1.2143479659
 31
0.0
  0
LINE
  5
94
330
1F
100
AcDbEntity
  8
0
  6
Continuous
 62
     7
370
     0
100
AcDbLine
 10
8.6911075579
 20
1.4643479659
 30
0.0
 11
10.6682571288
 21
1.4643479659
 31
0.0
  0
LINE
  5
95
330
1F
100
AcDbEntity
  8
0
  6
Continuous
 62
     7
370
     0
100
AcDbLine
 10
8.6911075579
 20
1.7143479659
 30
0.0
 11
10.6682571288
 21
1.7143479659
 31
0.0
  0
LINE
  5
96
330
1F
100
AcDbEntity
  8
0
  6
Continuous
 62
     7
370
     0
100
AcDbLine
 10
8.6911075579
 20
1.9643479659
 30
0.0
 11
10.6682571288
 21
1.9643479659
 31
0.0
  0
LINE
  5
97
330
1F
100
AcDbEntity
  8
0
  6
Continuous
 62
     7
370
     0
100
AcDbLine
 10
9.6890876875
 20
2.4643479659
 30
0.0
 11
9.6890876875
 21
0.6962748291
 31
0.0
  0
LINE
  5
98
330
1F
100
AcDbEntity
  8
0
  6
Continuous
 62
     7
370
     0
100
AcDbLine
 10
12.0452023081
 20
2.3100081789
 30
0.0
 11
10.6682571288
 21
2.3100081789
 31
0.0
  0
LINE
  5
99
330
1F
100
AcDbEntity
  8
0
  6
Continuous
 62
     7
370
     0
100
AcDbLine
 10
13.7412800044
 20
1.7143479659
 30
0.0
 11
12.0452023081
 21
1.7143479659
 31
0.0
  0
LINE
  5
9A
330
1F
100
AcDbEntity
  8
0
  6
Continuous
 62
     7
370
     0
100
AcDbLine
 10
13.7412800044
 20
1.5268479659
 30
0.0
 11
12.0452023081
 21
1.5268479659
 31
0.0
  0
LINE
  5
9B
330
1F
100
AcDbEntity
  8
0
  6
Continuous
 62
     7
370
     0
100
AcDbLine
 10
8.6911075579
 20
2.2143479659
 30
0.0
 11
10.6682571288
 21
2.2143479659
 31
0.0
  0
LINE
  5
9C
330
1F
100
AcDbEntity
  8
0
  6
Continuous
 62
     7
370
     0
100
AcDbLine
 10
10.6682571288
 20
1.5037233598
 30
0.0
 11
12.0497082514
 21
1.5037233598
 31
0.0
  0
LINE
  5
9D
330
1F
100
AcDbEntity
  8
0
  6
Continuous
 62
     7
370
     0
100
AcDbLine
 10
8.6911075579
 20
0.9643479659
 30
0.0
 11
10.6682571288
 21
0.9643479659
 31
0.0
  0
LINE
  5
9E
330
1F
100
AcDbEntity
  8
0
  6
Continuous
 62
     7
370
     0
100
AcDbLine
 10
7.0538982943
 20
0.5
 30
0.0
 11
7.0538982943
 21
1.4143479659
 31
0.0
  0
LINE
  5
9F
330
1F
100
AcDbEntity
  8
0
  6
Continuous
 62
     7
370
     0
100
AcDbLine
 10
8.6911075579
 20
1.4143479659
 30
0.0
 11
7.0538982943
 21
1.4143479659
 31
0.0
  0
LINE
  5
A0
330
1F
100
AcDbEntity
  8
0
  6
Continuous
 62
     7
100
AcDbLine
 10
4.25
 20
0.5
 30
0.0
 11
4.25
 21
0.125
 31
0.0
  0
LINE
  5
A1
330
1F
100
AcDbEntity
  8
0
  6
Continuous
 62
     7
100
AcDbLine
 10
12.75
 20
0.5
 30
0.0
 11
12.75
 21
0.125
 31
0.0
  0
LINE
  5
A2
330
1F
100
AcDbEntity
  8
0
  6
Continuous
 62
     7
100
AcDbLine
 10
12.75
 20
10.5
 30
0.0
 11
12.75
 21
10.875
 31
0.0
  0
LINE
  5
A3
330
1F
100
AcDbEntity
  8
0
  6
Continuous
 62
     7
100
AcDbLine
 10
4.25
 20
10.5
 30
0.0
 11
4.25
 21
10.875
 31
0.0
  0
MTEXT
  5
A5
330
1F
100
AcDbEntity
  8
0
  6
Continuous
 62
     7
370
     0
100
AcDbMText
 10
2.1225833335
 20
0.4045204825
 30
0.0
 40
0.24
 41
0.0
 71
     2
 72
     1
  1
4
  7
SLDTEXTSTYLE0
 73
     1
 44
1.0
  0
MTEXT
  5
A6
330
1F
100
AcDbEntity
  8
0
  6
Continuous
 62
     7
370
     0
100
AcDbMText
 10
0.240416667
 20
2.9045204825
 30
0.0
 40
0.24
 41
0.0
 71
     2
 72
     1
  1
A
  7
SLDTEXTSTYLE0
 73
     1
 44
1.0
  0
MTEXT
  5
A7
330
1F
100
AcDbEntity
  8
0
  6
Continuous
 62
     7
370
     0
100
AcDbMText
 10
14.8725833335
 20
0.4045204825
 30
0.0
 40
0.24
 41
0.0
 71
     2
 72
     1
  1
1
  7
SLDTEXTSTYLE0
 73
     1
 44
1.0
  0
MTEXT
  5
A8
330
1F
100
AcDbEntity
  8
0
  6
Continuous
 62
     7
370
     0
100
AcDbMText
 10
10.6225833335
 20
0.4045204825
 30
0.0
 40
0.24
 41
0.0
 71
     2
 72
     1
  1
2
  7
SLDTEXTSTYLE0
 73
     1
 44
1.0
  0
MTEXT
  5
A9
330
1F
100
AcDbEntity
  8
0
  6
Continuous
 62
     7
370
     0
100
AcDbMText
 10
6.3725833335
 20
0.4045204825
 30
0.0
 40
0.24
 41
0.0
 71
     2
 72
     1
  1
3
  7
SLDTEXTSTYLE0
 73
     1
 44
1.0
  0
MTEXT
  5
AA
330
1F
100
AcDbEntity
  8
0
  6
Continuous
 62
     7
370
     0
100
AcDbMText
 10
0.2481666625
 20
8.4045204825
 30
0.0
 40
0.24
 41
0.0
 71
     2
 72
     1
  1
B
  7
SLDTEXTSTYLE0
 73
     1
 44
1.0
  0
MTEXT
  5
AB
330
1F
100
AcDbEntity
  8
0
  6
Continuous
 62
     7
370
     0
100
AcDbMText
 10
16.7196471332
 20
8.4045204825
 30
0.0
 40
0.24
 41
0.0
 71
     2
 72
     1
  1
B
  7
SLDTEXTSTYLE0
 73
     1
 44
1.0
  0
MTEXT
  5
AC
330
1F
100
AcDbEntity
  8
0
  6
Continuous
 62
     7
370
     0
100
AcDbMText
 10
16.7118971376
 20
2.9045204825
 30
0.0
 40
0.24
 41
0.0
 71
     2
 72
     1
  1
A
  7
SLDTEXTSTYLE0
 73
     1
 44
1.0
  0
MTEXT
  5
AD
330
1F
100
AcDbEntity
  8
0
  6
Continuous
 62
     7
370
     0
100
AcDbMText
 10
10.6225833335
 20
10.8837834403
 30
0.0
 40
0.24
 41
0.0
 71
     2
 72
     1
  1
2
  7
SLDTEXTSTYLE0
 73
     1
 44
1.0
  0
MTEXT
  5
AE
330
1F
100
AcDbEntity
  8
0
  6
Continuous
 62
     7
370
     0
100
AcDbMText
 10
14.8725833335
 20
10.8837834403
 30
0.0
 40
0.24
 41
0.0
 71
     2
 72
     1
  1
1
  7
SLDTEXTSTYLE0
 73
     1
 44
1.0
  0
MTEXT
  5
AF
330
1F
100
AcDbEntity
  8
0
  6
Continuous
 62
     7
370
     0
100
AcDbMText
 10
6.3725833335
 20
10.8837834403
 30
0.0
 40
0.24
 41
0.0
 71
     2
 72
     1
  1
3
  7
SLDTEXTSTYLE0
 73
     1
 44
1.0
  0
MTEXT
  5
B0
330
1F
100
AcDbEntity
  8
0
  6
Continuous
 62
     7
370
     0
100
AcDbMText
 10
2.1225833335
 20
10.8837834403
 30
0.0
 40
0.24
 41
0.0
 71
     2
 72
     1
  1
4
  7
SLDTEXTSTYLE0
 73
     1
 44
1.0
  0
MTEXT
  5
B1
330
1F
100
AcDbEntity
  8
0
  6
Continuous
 62
     7
370
     0
100
AcDbMText
 10
11.3564467586
 20
0.6257720645
 30
0.0
 40
0.0625
 41
0.0
 71
     2
 72
     1
  1
DO NOT SCALE DRAWING
  7
SLDTEXTSTYLE0
 73
     1
 44
1.0
  0
MTEXT
  5
B2
330
1F
100
AcDbEntity
  8
0
  6
Continuous
 62
     7
370
     0
100
AcDbMText
 10
15.0519563661
 20
1.0579889711
 30
0.0
 40
0.25
 41
0.0
 71
     2
 72
     1
  1
B2_handle
  7
SLDTEXTSTYLE0
 73
     1
 44
1.0
  0
MTEXT
  5
B4
330
1F
100
AcDbEntity
  8
0
  6
Continuous
 62
     7
370
     0
100
AcDbMText
 10
15.6272008483
 20
0.6603507825
 30
0.0
 40
0.1
 41
0.0
 71
     1
 72
     1
  1
SHEET 1 OF 1
  7
SLDTEXTSTYLE1
 73
     1
 44
1.0
  0
MTEXT
  5
B5
330
1F
100
AcDbEntity
  8
0
  6
Continuous
 62
     7
370
     0
100
AcDbMText
 10
10.7148807858
 20
2.4212222426
 30
0.0
 40
0.07
 41
0.0
 71
     1
 72
     1
  1
UNLESS OTHERWISE SPECIFIED:
  7
SLDTEXTSTYLE0
 73
     1
 44
1.0
  0
MTEXT
  5
B6
330
1F
100
AcDbEntity
  8
0
  6
Continuous
 62
     7
370
     0
100
AcDbMText
 10
13.8286869647
 20
0.6600256172
 30
0.0
 40
0.1
 41
0.0
 71
     1
 72
     1
  1
SCALE: 1:1
  7
SLDTEXTSTYLE0
 73
     1
 44
1.0
  0
MTEXT
  5
B7
330
1F
100
AcDbEntity
  8
0
  6
Continuous
 62
     7
370
     0
100
AcDbMText
 10
14.5724421647
 20
0.6566031637
 30
0.0
 40
0.1
 41
0.0
 71
     1
 72
     1
  1
WEIGHT:
  7
SLDTEXTSTYLE0
 73
     1
 44
1.0
  0
MTEXT
  5
B8
330
1F
100
AcDbEntity
  8
0
  6
Continuous
 62
     7
370
     0
100
AcDbMText
 10
16.0978310983
 20
1.1898931282
 30
0.0
 40
0.1
 41
0.0
 71
     1
 72
     1
  1
REV
  7
SLDTEXTSTYLE0
 73
     1
 44
1.0
  0
MTEXT
  5
BA
330
1F
100
AcDbEntity
  8
0
  6
Continuous
 62
     7
370
     0
100
AcDbMText
 10
14.1685300898
 20
1.1937993586
 30
0.0
 40
0.1
 41
0.0
 71
     1
 72
     1
  1
DWG.  NO.
  7
SLDTEXTSTYLE2
 73
     1
 44
1.0
  0
MTEXT
  5
BB
330
1F
100
AcDbEntity
  8
0
  6
Continuous
 62
     7
370
     0
100
AcDbMText
 10
13.8299212632
 20
1.0521409015
 30
0.0
 40
0.25
 41
0.0
 71
     1
 72
     1
  1
B
  7
SLDTEXTSTYLE0
 73
     1
 44
1.0
  0
MTEXT
  5
BC
330
1F
100
AcDbEntity
  8
0
  6
Continuous
 62
     7
370
     0
100
AcDbMText
 10
13.8220311822
 20
1.1951981776
 30
0.0
 40
0.1
 41
0.0
 71
     1
 72
     1
  1
SIZE
  7
SLDTEXTSTYLE0
 73
     1
 44
1.0
  0
MTEXT
  5
BD
330
1F
100
AcDbEntity
  8
0
  6
Continuous
 62
     7
370
     0
100
AcDbMText
 10
13.7871434177
 20
2.062714942
 30
0.0
 40
0.1
 41
0.0
 71
     1
 72
     1
  1
TITLE:
  7
SLDTEXTSTYLE0
 73
     1
 44
1.0
  0
MTEXT
  5
BE
330
1F
100
AcDbEntity
  8
0
  6
Continuous
 62
     7
370
     0
100
AcDbMText
 10
12.9064504929
 20
2.3985429566
 30
0.0
 40
0.065
 41
0.0
 71
     1
 72
     1
  1
NAME
  7
SLDTEXTSTYLE0
 73
     1
 44
1.0
  0
MTEXT
  5
BF
330
1F
100
AcDbEntity
  8
0
  6
Continuous
 62
     7
370
     0
100
AcDbMText
 10
13.3982240634
 20
2.3968067411
 30
0.0
 40
0.065
 41
0.0
 71
     1
 72
     1
  1
DATE
  7
SLDTEXTSTYLE0
 73
     1
 44
1.0
  0
MTEXT
  5
C0
330
1F
100
AcDbEntity
  8
0
  6
Continuous
 62
     7
370
     0
100
AcDbMText
 10
12.0977877029
 20
1.2956181437
 30
0.0
 40
0.065
 41
0.0
 71
     1
 72
     1
  1
COMMENTS:
  7
SLDTEXTSTYLE0
 73
     1
 44
1.0
  0
MTEXT
  5
C1
330
1F
100
AcDbEntity
  8
0
  6
Continuous
 62
     7
370
     0
100
AcDbMText
 10
12.0969141461
 20
1.4615369972
 30
0.0
 40
0.065
 41
0.0
 71
     1
 72
     1
  1
Q.A.
  7
SLDTEXTSTYLE0
 73
     1
 44
1.0
  0
MTEXT
  5
C2
330
1F
100
AcDbEntity
  8
0
  6
Continuous
 62
     7
370
     0
100
AcDbMText
 10
12.0985384509
 20
1.6474596716
 30
0.0
 40
0.065
 41
0.0
 71
     1
 72
     1
  1
MFG APPR.
  7
SLDTEXTSTYLE0
 73
     1
 44
1.0
  0
MTEXT
  5
C3
330
1F
100
AcDbEntity
  8
0
  6
Continuous
 62
     7
370
     0
100
AcDbMText
 10
12.0935901344
 20
1.8346770078
 30
0.0
 40
0.065
 41
0.0
 71
     1
 72
     1
  1
ENG APPR.
  7
SLDTEXTSTYLE0
 73
     1
 44
1.0
  0
MTEXT
  5
C4
330
1F
100
AcDbEntity
  8
0
  6
Continuous
 62
     7
370
     0
100
AcDbMText
 10
12.0964833951
 20
2.0171967381
 30
0.0
 40
0.065
 41
0.0
 71
     1
 72
     1
  1
CHECKED
  7
SLDTEXTSTYLE0
 73
     1
 44
1.0
  0
MTEXT
  5
C5
330
1F
100
AcDbEntity
  8
0
  6
Continuous
 62
     7
370
     0
100
AcDbMText
 10
12.0943524356
 20
2.2095569525
 30
0.0
 40
0.065
 41
0.0
 71
     1
 72
     1
  1
DRAWN
  7
SLDTEXTSTYLE0
 73
     1
 44
1.0
  0
MTEXT
  5
C6
330
1F
100
AcDbEntity
  8
0
  6
Continuous
 62
     7
370
     0
100
AcDbMText
 10
10.6909330979
 20
0.9424500643
 30
0.0
 40
0.06
 41
0.0
 71
     1
 72
     1
  1
FINISH
  7
SLDTEXTSTYLE0
 73
     1
 44
1.0
  0
MTEXT
  5
C7
330
1F
100
AcDbEntity
  8
0
  6
Continuous
 62
     7
370
     0
100
AcDbMText
 10
10.6881970648
 20
1.210748588
 30
0.0
 40
0.06
 41
0.0
 71
     1
 72
     1
  1
MATERIAL
  7
SLDTEXTSTYLE0
 73
     1
 44
1.0
  0
INSERT
  5
CD
330
1F
100
AcDbEntity
  8
0
  6
Continuous
 62
     7
370
     0
100
AcDbBlockReference
  2
SW_NOTE_0
 10
10.6932656633
 20
1.3725811239
 30
0.0
  0
INSERT
  5
DD
330
1F
100
AcDbEntity
  8
0
  6
Continuous
 62
     7
370
     0
100
AcDbBlockReference
  2
SW_NOTE_1
 10
10.7054069353
 20
2.1128437016
 30
0.0
  0
MTEXT
  5
DE
330
1F
100
AcDbEntity
  8
0
  6
Continuous
 62
     7
370
     0
100
AcDbMText
 10
9.4232130086
 20
0.627936029
 30
0.0
 40
0.0625
 41
0.0
 71
     1
 72
     1
  1
APPLICATION
  7
SLDTEXTSTYLE0
 73
     1
 44
1.0
  0
MTEXT
  5
DF
330
1F
100
AcDbEntity
  8
0
  6
Continuous
 62
     7
370
     0
100
AcDbMText
 10
9.9706337758
 20
0.8581722568
 30
0.0
 40
0.0625
 41
0.0
 71
     1
 72
     1
  1
USED ON
  7
SLDTEXTSTYLE0
 73
     1
 44
1.0
  0
MTEXT
  5
E0
330
1F
100
AcDbEntity
  8
0
  6
Continuous
 62
     7
370
     0
100
AcDbMText
 10
8.9740749536
 20
0.8571363076
 30
0.0
 40
0.0625
 41
0.0
 71
     1
 72
     1
  1
NEXT ASSY
  7
SLDTEXTSTYLE0
 73
     1
 44
1.0
  0
MTEXT
  5
E1
330
1F
100
AcDbEntity
  8
0
  6
Continuous
 62
     7
370
     0
100
AcDbMText
 10
7.2413219489
 20
1.3575940977
 30
0.0
 40
0.06
 41
0.0
 71
     1
 72
     1
  1
PROPRIETARY AND CONFIDENTIAL
  7
SLDTEXTSTYLE0
 73
     1
 44
1.0
  0
INSERT
  5
EC
330
1F
100
AcDbEntity
  8
0
  6
Continuous
 62
     7
370
     0
100
AcDbBlockReference
  2
SW_NOTE_2
 10
7.0926939074
 20
1.1392761214
 30
0.0
  0
SPLINE
  5
ED
330
1F
100
AcDbEntity
  8
0
  6
Continuous
 62
     7
370
    15
100
AcDbSpline
210
0.0
220
0.0
230
1.0
 70
     8
 71
     3
 72
    27
 73
    23
 74
     0
 42
0.000000001
 43
0.00000001
 40
0.0
 40
0.0
 40
0.0
 40
0.0
 40
0.0203510195992849
 40
0.0744595799938772
 40
0.128569004238465
 40
0.1826787921666724
 40
0.2367890441096359
 40
0.2908998603398394
 40
0.3450113410052214
 40
0.3991235860709821
 40
0.4532366952491891
 40
0.5073507679128291
 40
0.5614659029923803
 40
0.6155821988513672
 40
0.6696997531380626
 40
0.72381866260949
 40
0.7779390229243994
 40
0.8320609284005916
 40
0.8861844717320405
 40
0.9403097436609263
 40
0.9915889215702585
 40
1.0
 40
1.0
 40
1.0
 40
1.0
 10
7.887442106731818
 20
7.613330277881852
 30
0.0
 10
7.873442085124474
 20
7.587912954778125
 30
0.0
 10
7.822219308609403
 20
7.494916965381183
 30
0.0
 10
7.735487384791458
 20
7.333498945103625
 30
0.0
 10
7.628180158711751
 20
7.1287327426285
 30
0.0
 10
7.523376253315896
 20
6.922943743041449
 30
0.0
 10
7.421045065830397
 20
6.716247220425842
 30
0.0
 10
7.321244741164059
 20
6.508712195643684
 30
0.0
 10
7.224008348652338
 20
6.300420276447417
 30
0.0
 10
7.129374469905882
 20
6.091450056042459
 30
0.0
 10
7.037378984577359
 20
5.881881255247149
 30
0.0
 10
6.948057257258507
 20
5.671793574569751
 30
0.0
 10
6.861443525135978
 20
5.461266962347488
 30
0.0
 10
6.777571084009683
 20
5.250381508574865
 30
0.0
 10
6.696472082888683
 20
5.039217419785633
 30
0.0
 10
6.618178088693811
 20
4.827855044085706
 30
0.0
 10
6.542717964667076
 20
4.616374614705131
 30
0.0
 10
6.470125727044477
 20
4.404857069706241
 30
0.0
 10
6.400411176320253
 20
4.193380848887308
 30
0.0
 10
6.334840043590752
 20
3.985740524629673
 30
0.0
 10
6.289932696829259
 20
3.83772816290973
 30
0.0
 10
6.267139062065865
 20
3.76017890898742
 30
0.0
 10
6.263927163483879
 20
3.749251281985732
 30
0.0
  0
SPLINE
  5
EE
330
1F
100
AcDbEntity
  8
0
  6
Continuous
 62
     7
370
    15
100
AcDbSpline
210
0.0
220
0.0
230
1.0
 70
     8
 71
     3
 72
    10
 73
     6
 74
     0
 42
0.000000001
 43
0.00000001
 40
0.0
 40
0.0
 40
0.0
 40
0.0
 40
0.3250073881083423
 40
0.6748802178251566
 40
1.0
 40
1.0
 40
1.0
 40
1.0
 10
7.888955058291773
 20
8.439964680865826
 30
0.0
 10
7.885325912808737
 20
8.430940533824788
 30
0.0
 10
7.877789965677302
 20
8.412201826510508
 30
0.0
 10
7.870735915689604
 20
8.383558030501295
 30
0.0
 10
7.869028353949964
 20
8.364263995633483
 30
0.0
 10
7.868205882576112
 20
8.354970749599401
 30
0.0
  0
SPLINE
  5
EF
330
1F
100
AcDbEntity
  8
0
  6
Continuous
 62
     7
370
    15
100
AcDbSpline
210
0.0
220
0.0
230
1.0
 70
     8
 71
     3
 72
    16
 73
    12
 74
     0
 42
0.000000001
 43
0.00000001
 40
0.0
 40
0.0
 40
0.0
 40
0.0
 40
0.0564990033403752
 40
0.1857826590895809
 40
0.3151873942659776
 40
0.4446932357355647
 40
0.5742750639091014
 40
0.703888555066914
 40
0.8334562792075806
 40
0.9628909280892662
 40
1.0
 40
1.0
 40
1.0
 40
1.0
 10
7.86844959638972
 20
8.357101394046467
 30
0.0
 10
7.867025870114449
 20
8.345976335788173
 30
0.0
 10
7.862344306943463
 20
8.309394400115767
 30
0.0
 10
7.856848379875215
 20
8.24818802623455
 30
0.0
 10
7.853173368879667
 20
8.174102839803714
 30
0.0
 10
7.85292477399044
 20
8.101545965334344
 30
0.0
 10
7.856054634412292
 20
8.030697298166137
 30
0.0
 10
7.862588231301905
 20
7.961757386207766
 30
0.0
 10
7.872593790818653
 20
7.89498217357444
 30
0.0
 10
7.882690993546066
 20
7.845723891395921
 30
0.0
 10
7.889512564339427
 20
7.818836645047009
 30
0.0
 10
7.891032538553469
 20
7.812845661096993
 30
0.0
  0
SPLINE
  5
F0
330
1F
100
AcDbEntity
  8
0
  6
Continuous
 62
     7
370
    15
100
AcDbSpline
210
0.0
220
0.0
230
1.0
 70
     8
 71
     3
 72
    19
 73
    15
 74
     0
 42
0.000000001
 43
0.00000001
 40
0.0
 40
0.0
 40
0.0
 40
0.0
 40
0.0057609959252754
 40
0.0977795370899396
 40
0.1840580204171297
 40
0.2746409528046568
 40
0.3656821206968512
 40
0.4590248276037397
 40
0.5549628834259612
 40
0.6526666358266332
 40
0.751006386486411
 40
0.8485660527488177
 40
0.944142042155585
 40
1.0
 40
1.0
 40
1.0
 40
1.0
 10
8.397430530189807
 20
7.793147778465222
 30
0.0
 10
8.397444753878917
 20
7.793138416610685
 30
0.0
 10
8.397686167994612
 20
7.792979520854675
 30
0.0
 10
8.396685023832191
 20
7.793930328313012
 30
0.0
 10
8.394949429366557
 20
7.798894010605482
 30
0.0
 10
8.3938801463709
 20
7.808032638150334
 30
0.0
 10
8.394795376290437
 20
7.820543648293962
 30
0.0
 10
8.398129396179177
 20
7.835263756982043
 30
0.0
 10
8.4040376452003
 20
7.851173340657179
 30
0.0
 10
8.41233371167265
 20
7.867128512634113
 30
0.0
 10
8.422518396732682
 20
7.881950714029884
 30
0.0
 10
8.433743851658965
 20
7.894479080392503
 30
0.0
 10
8.443638227370775
 20
7.902872924552073
 30
0.0
 10
8.449075631989581
 20
7.906238679390106
 30
0.0
 10
8.451081274208473
 20
7.907480172432254
 30
0.0
  0
LINE
  5
F1
330
1F
100
AcDbEntity
  8
0
  6
Continuous
 62
     7
370
    15
100
AcDbLine
 10
8.4510812742
 20
7.9074801724
 30
0.0
 11
8.6877114963
 21
8.0440838919
 31
0.0
  0
SPLINE
  5
F2
330
1F
100
AcDbEntity
  8
0
  6
Continuous
 62
     7
370
    15
100
AcDbSpline
210
0.0
220
0.0
230
1.0
 70
     8
 71
     3
 72
    11
 73
     7
 74
     0
 42
0.000000001
 43
0.00000001
 40
0.0
 40
0.0
 40
0.0
 40
0.0
 40
0.172782683767695
 40
0.4966472973212392
 40
0.8262428180488568
 40
1.0
 40
1.0
 40
1.0
 40
1.0
 10
8.687711496259087
 20
8.044083891930148
 30
0.0
 10
8.68933962497268
 20
8.044960037500637
 30
0.0
 10
8.694019525224627
 20
8.04747843413712
 30
0.0
 10
8.699924019892663
 20
8.049256104092976
 30
0.0
 10
8.70300689295178
 20
8.049211476750191
 30
0.0
 10
8.702816770237243
 20
8.049242490571926
 30
0.0
 10
8.70275113994078
 20
8.049253196532652
 30
0.0
  0
SPLINE
  5
F3
330
1F
100
AcDbEntity
  8
0
  6
Continuous
 62
     7
370
    15
100
AcDbSpline
210
0.0
220
0.0
230
1.0
 70
     8
 71
     3
 72
    16
 73
    12
 74
     0
 42
0.000000001
 43
0.00000001
 40
0.0
 40
0.0
 40
0.0
 40
0.0
 40
0.0669020842800081
 40
0.1998175437009055
 40
0.3301083002631379
 40
0.4595673822802821
 40
0.5893054453307532
 40
0.7199914430296135
 40
0.8518824950542065
 40
0.9849661317679101
 40
1.0
 40
1.0
 40
1.0
 40
1.0
 10
7.893628592009069
 20
7.8050797771352
 30
0.0
 10
7.894642183483684
 20
7.802775626591103
 30
0.0
 10
7.897669493633336
 20
7.795893782669594
 30
0.0
 10
7.902081316781463
 20
7.781433461880733
 30
0.0
 10
7.905792112560803
 20
7.760551557736494
 30
0.0
 10
7.907432095487444
 20
7.736448656778908
 30
0.0
 10
7.906707968343146
 20
7.709558036758895
 30
0.0
 10
7.903436410512318
 20
7.680277670854111
 30
0.0
 10
7.897369184908653
 20
7.649057316509802
 30
0.0
 10
7.891416301556626
 20
7.626202114621308
 30
0.0
 10
7.887459589427419
 20
7.613946677159408
 30
0.0
 10
7.887057984709566
 20
7.61270275509904
 30
0.0
  0
SPLINE
  5
F4
330
1F
100
AcDbEntity
  8
0
  6
Continuous
 62
     7
370
    15
100
AcDbSpline
210
0.0
220
0.0
230
1.0
 70
     8
 71
     3
 72
    16
 73
    12
 74
     0
 42
0.000000001
 43
0.00000001
 40
0.0
 40
0.0
 40
0.0
 40
0.0
 40
0.0224767079500791
 40
0.1907212514700639
 40
0.3211473505342051
 40
0.442427332626705
 40
0.5714652393509739
 40
0.6947459283398054
 40
0.8154095255973227
 40
0.9352278581869234
 40
1.0
 40
1.0
 40
1.0
 40
1.0
 10
7.699578014596799
 20
5.384469459927154
 30
0.0
 10
7.698834234498767
 20
5.384816881904737
 30
0.0
 10
7.692523049096061
 20
5.387764856069818
 30
0.0
 10
7.683624866257952
 20
5.395565062094876
 30
0.0
 10
7.671853036883221
 20
5.408825836950827
 30
0.0
 10
7.661883525272486
 20
5.424833600449095
 30
0.0
 10
7.653068079978024
 20
5.44455954408732
 30
0.0
 10
7.645871965264237
 20
5.468365788713026
 30
0.0
 10
7.64088548435224
 20
5.495239610697124
 30
0.0
 10
7.638541389729156
 20
5.520370436146635
 30
0.0
 10
7.638323087691018
 20
5.536815314768607
 30
0.0
 10
7.638246486281231
 20
5.542585764265787
 30
0.0
  0
SPLINE
  5
F5
330
1F
100
AcDbEntity
  8
0
  6
Continuous
 62
     7
370
    15
100
AcDbSpline
210
0.0
220
0.0
230
1.0
 70
     8
 71
     3
 72
    33
 73
    29
 74
     0
 42
0.000000001
 43
0.00000001
 40
0.0
 40
0.0
 40
0.0
 40
0.0
 40
0.0205185634834657
 40
0.0598904824673459
 40
0.099460040488713
 40
0.1392520829058559
 40
0.1792563842933277
 40
0.2194455440583551
 40
0.2597831254479299
 40
0.3002282651711881
 40
0.3407381356560809
 40
0.3812691290103226
 40
0.4217684197757358
 40
0.4621863386459082
 40
0.5024791873880039
 40
0.5426043922206203
 40
0.582522359398984
 40
0.6222000659519761
 40
0.6616174297574765
 40
0.7007780236285962
 40
0.739726485653034
 40
0.7785762929797797
 40
0.8174860181298974
 40
0.8567784896833929
 40
0.8970499498904188
 40
0.9393291153479187
 40
0.9853826170717779
 40
1.0
 40
1.0
 40
1.0
 40
1.0
 10
7.638246486281231
 20
5.542585764265787
 30
0.0
 10
7.638318283267601
 20
5.548302720816524
 30
0.0
 10
7.638527847458434
 20
5.564989624183052
 30
0.0
 10
7.640918201834331
 20
5.59444052988351
 30
0.0
 10
7.646418974114877
 20
5.631241797392601
 30
0.0
 10
7.654794773753212
 20
5.669601138959436
 30
0.0
 10
7.665994538636066
 20
5.7090309305979
 30
0.0
 10
7.679972309229893
 20
5.749080925529905
 30
0.0
 10
7.696617179967363
 20
5.789277461687298
 30
0.0
 10
7.715776431300136
 20
5.829151436587515
 30
0.0
 10
7.737253681754464
 20
5.868240071487062
 30
0.0
 10
7.760811846642522
 20
5.90609167518502
 30
0.0
 10
7.7861756093675
 20
5.942272506237518
 30
0.0
 10
7.813035317225362
 20
5.976374941613536
 30
0.0
 10
7.841052114204933
 20
6.008025839836689
 30
0.0
 10
7.869860461378309
 20
6.036891519733132
 30
0.0
 10
7.89907008293666
 20
6.062683420899082
 30
0.0
 10
7.928270136721681
 20
6.085166651084907
 30
0.0
 10
7.957035309287225
 20
6.104169881597823
 30
0.0
 10
7.984934990166577
 20
6.119596127676956
 30
0.0
 10
8.011547731541624
 20
6.131434299320853
 30
0.0
 10
8.036467643399932
 20
6.139761466792805
 30
0.0
 10
8.059343564137274
 20
6.144761843093889
 30
0.0
 10
8.07992458357581
 20
6.146696882468173
 30
0.0
 10
8.098197843555639
 20
6.145959298214147
 30
0.0
 10
8.114305759489222
 20
6.142553797934989
 30
0.0
 10
8.125382748507462
 20
6.138799582852812
 30
0.0
 10
8.130947314430037
 20
6.135001635504066
 30
0.0
 10
8.132287980408224
 20
6.134086599386558
 30
0.0
  0
SPLINE
  5
F6
330
1F
100
AcDbEntity
  8
0
  6
Continuous
 62
     7
370
    15
100
AcDbSpline
210
0.0
220
0.0
230
1.0
 70
     8
 71
     3
 72
    16
 73
    12
 74
     0
 42
0.000000001
 43
0.00000001
 40
0.0
 40
0.0
 40
0.0
 40
0.0
 40
0.1259314172100258
 40
0.2496001980674176
 40
0.3645691020751536
 40
0.4742442356141955
 40
0.5906820629509437
 40
0.7037068776408075
 40
0.8150261227006725
 40
0.9257138135764312
 40
1.0
 40
1.0
 40
1.0
 40
1.0
 10
7.260172643492341
 20
4.174373401051957
 30
0.0
 10
7.254735722351681
 20
4.1777786948597
 30
0.0
 10
7.243959566380034
 20
4.184528098842605
 30
0.0
 10
7.22982636718887
 20
4.198716226723125
 30
0.0
 10
7.217065452322353
 20
4.215629460426602
 30
0.0
 10
7.205675698498187
 20
4.235966841192214
 30
0.0
 10
7.195802808226217
 20
4.260024158435379
 30
0.0
 10
7.187809758117072
 20
4.288024505838307
 30
0.0
 10
7.18222070714322
 20
4.319017525152454
 30
0.0
 10
7.179328444356218
 20
4.349006717388955
 30
0.0
 10
7.179026663359706
 20
4.369186024799284
 30
0.0
 10
7.178905467006506
 20
4.377290108543805
 30
0.0
  0
SPLINE
  5
F7
330
1F
100
AcDbEntity
  8
0
  6
Continuous
 62
     7
370
    15
100
AcDbSpline
210
0.0
220
0.0
230
1.0
 70
     8
 71
     3
 72
    35
 73
    31
 74
     0
 42
0.000000001
 43
0.00000001
 40
0.0
 40
0.0
 40
0.0
 40
0.0
 40
0.0188776235849236
 40
0.0550924306767546
 40
0.0914417987453121
 40
0.1279414721308814
 40
0.164589282157524
 40
0.2013708979658863
 40
0.2382651704362635
 40
0.2752473248371671
 40
0.3122907918973876
 40
0.3493681865689486
 40
0.3864517731267677
 40
0.4235057212378062
 40
0.4605007427964583
 40
0.4974090486395336
 40
0.5342034753588811
 40
0.5708584765857948
 40
0.6073519703844691
 40
0.64366852948735
 40
0.6798046265038672
 40
0.7157769696869332
 40
0.7516354408947984
 40
0.78747212308844
 40
0.8234136841123167
 40
0.8597259155541404
 40
0.8968441339588
 40
0.9354586055483903
 40
0.9765999038481883
 40
1.0
 40
1.0
 40
1.0
 40
1.0
 10
7.178905467006506
 20
4.377290108543805
 30
0.0
 10
7.178979999507273
 20
4.383739763408185
 30
0.0
 10
7.179197515054891
 20
4.402562427283559
 30
0.0
 10
7.181664603185231
 20
4.435480326518437
 30
0.0
 10
7.18731122045337
 20
4.47636776273148
 30
0.0
 10
7.195880430845783
 20
4.518802632014316
 30
0.0
 10
7.207318413314574
 20
4.562347868224295
 30
0.0
 10
7.221590206500681
 20
4.606605726589756
 30
0.0
 10
7.238605695527314
 20
4.651155531270727
 30
0.0
 10
7.258242275445522
 20
4.695578617610997
 30
0.0
 10
7.280341824546612
 20
4.739458674364063
 30
0.0
 10
7.304714582429712
 20
4.782387704247734
 30
0.0
 10
7.331139110766146
 20
4.823966856099211
 30
0.0
 10
7.359365405486068
 20
4.863813478155996
 30
0.0
 10
7.389117295605299
 20
4.901565972193669
 30
0.0
 10
7.42009693352015
 20
4.936890474752833
 30
0.0
 10
7.451985339547627
 20
4.969482758423071
 30
0.0
 10
7.484444348922167
 20
4.999072780513613
 30
0.0
 10
7.517119526629968
 20
5.025430414068869
 30
0.0
 10
7.549644182022988
 20
5.048371934605843
 30
0.0
 10
7.581645203599152
 20
5.06776720855209
 30
0.0
 10
7.612751617319852
 20
5.083547008351013
 30
0.0
 10
7.642604598169442
 20
5.095708787580629
 30
0.0
 10
7.670863716770258
 20
5.104317161067335
 30
0.0
 10
7.697246281163035
 20
5.109516323225128
 30
0.0
 10
7.721560318922664
 20
5.111498545643189
 30
0.0
 10
7.743809188877892
 20
5.110530783658756
 30
0.0
 10
7.764091461381246
 20
5.106576756624099
 30
0.0
 10
7.779973528741608
 20
5.101321684498012
 30
0.0
 10
7.788550602631188
 20
5.096050358098061
 30
0.0
 10
7.791660302311879
 20
5.094139188597393
 30
0.0
  0
LINE
  5
F8
330
1F
100
AcDbEntity
  8
0
  6
Continuous
 62
     7
370
    15
100
AcDbLine
 10
9.153541772
 20
9.020357708
 30
0.0
 11
9.0631501344
 21
8.9681757264
 31
0.0
  0
SPLINE
  5
F9
330
1F
100
AcDbEntity
  8
0
  6
Continuous
 62
     7
370
    15
100
AcDbSpline
210
0.0
220
0.0
230
1.0
 70
     8
 71
     3
 72
    20
 73
    16
 74
     0
 42
0.000000001
 43
0.00000001
 40
0.0
 40
0.0
 40
0.0
 40
0.0
 40
0.0750491921748374
 40
0.1517031655580539
 40
0.2287472043059729
 40
0.3061203545663655
 40
0.3837484306493545
 40
0.461550993350071
 40
0.5394449503277741
 40
0.6173460195276599
 40
0.6951417844056161
 40
0.772747797558227
 40
0.8500806458960235
 40
0.9270601828107888
 40
1.0
 40
1.0
 40
1.0
 40
1.0
 10
7.909600246267105
 20
6.070251695049058
 30
0.0
 10
7.907611513417574
 20
6.058062152588355
 30
0.0
 10
7.903591522529192
 20
6.033422417976887
 30
0.0
 10
7.893982602419913
 20
5.994694814575471
 30
0.0
 10
7.881718719862523
 20
5.95498833545749
 30
0.0
 10
7.866659215496149
 20
5.914817446893999
 30
0.0
 10
7.849002710448317
 20
5.874694319648911
 30
0.0
 10
7.828900520515439
 20
5.835075602241147
 30
0.0
 10
7.806569951364021
 20
5.796422640718212
 30
0.0
 10
7.782262660406808
 20
5.759179403206
 30
0.0
 10
7.756268222473222
 20
5.723776832149244
 30
0.0
 10
7.728909225763931
 20
5.690586120984802
 30
0.0
 10
7.700533676775962
 20
5.660054943547956
 30
0.0
 10
7.671975367838737
 20
5.632601703840932
 30
0.0
 10
7.652873521919618
 20
5.617039728766587
 30
0.0
 10
7.643579957672065
 20
5.609468407346414
 30
0.0
  0
LINE
  5
FA
330
1F
100
AcDbEntity
  8
0
  6
Continuous
 62
     7
370
    15
100
AcDbLine
 10
8.7270365454
 20
6.7816584693
 30
0.0
 11
8.9379186523
 21
7.5197258038
 31
0.0
  0
SPLINE
  5
FB
330
1F
100
AcDbEntity
  8
0
  6
Continuous
 62
     7
370
    15
100
AcDbSpline
210
0.0
220
0.0
230
1.0
 70
     8
 71
     3
 72
    13
 73
     9
 74
     0
 42
0.000000001
 43
0.00000001
 40
0.0
 40
0.0
 40
0.0
 40
0.0
 40
0.0365204069770547
 40
0.2969000458047126
 40
0.5135164081629773
 40
0.7201171932773401
 40
0.9399045958920511
 40
1.0
 40
1.0
 40
1.0
 40
1.0
 10
9.541714183737927
 20
8.603142407177522
 30
0.0
 10
9.541496743184545
 20
8.60322876675499
 30
0.0
 10
9.539729016162784
 20
8.603930844432334
 30
0.0
 10
9.537474451968542
 20
8.606313916982334
 30
0.0
 10
9.533383698497286
 20
8.612673232984026
 30
0.0
 10
9.530134197959416
 20
8.622643672124756
 30
0.0
 10
9.528749180510523
 20
8.632880555761004
 30
0.0
 10
9.52866275673804
 20
8.639652527673167
 30
0.0
 10
9.528644200144328
 20
8.641106580508476
 30
0.0
  0
SPLINE
  5
FC
330
1F
100
AcDbEntity
  8
0
  6
Continuous
 62
     7
370
    15
100
AcDbSpline
210
0.0
220
0.0
230
1.0
 70
     8
 71
     3
 72
    22
 73
    18
 74
     0
 42
0.000000001
 43
0.00000001
 40
0.0
 40
0.0
 40
0.0
 40
0.0
 40
0.0376085407759386
 40
0.1099961862423616
 40
0.1833471384757492
 40
0.2576434697357908
 40
0.332580094137324
 40
0.4077816240011466
 40
0.4827997692297765
 40
0.5571747465054591
 40
0.6305514814245202
 40
0.7026943491539901
 40
0.773709506466512
 40
0.8445326793245286
 40
0.9168121807673136
 40
0.9957056461557174
 40
1.0
 40
1.0
 40
1.0
 40
1.0
 10
9.528644200144328
 20
8.641106580508476
 30
0.0
 10
9.528709675177751
 20
8.643988428004358
 30
0.0
 10
9.528901174337841
 20
8.652417157950774
 30
0.0
 10
9.531165567723406
 20
8.668257443229537
 30
0.0
 10
9.536460220213566
 20
8.688458538510636
 30
0.0
 10
9.544483500047383
 20
8.709423369170747
 30
0.0
 10
9.554980394948695
 20
8.730211622642969
 30
0.0
 10
9.567571607646682
 20
8.749939954774772
 30
0.0
 10
9.581704417776518
 20
8.767759885007505
 30
0.0
 10
9.596694882727995
 20
8.782941728399457
 30
0.0
 10
9.611750641952948
 20
8.79492412480272
 30
0.0
 10
9.626004317462353
 20
8.803387731044264
 30
0.0
 10
9.638558676414217
 20
8.80829575646797
 30
0.0
 10
9.648553497614778
 20
8.810106653482096
 30
0.0
 10
9.655465809988923
 20
8.809393466830938
 30
0.0
 10
9.65823955482973
 20
8.808876274279623
 30
0.0
 10
9.659534460712408
 20
8.807719735024875
 30
0.0
 10
9.65960130684573
 20
8.807660031707245
 30
0.0
  0
SPLINE
  5
FD
330
1F
100
AcDbEntity
  8
0
  6
Continuous
 62
     7
370
    15
100
AcDbSpline
210
0.0
220
0.0
230
1.0
 70
     8
 71
     3
 72
    17
 73
    13
 74
     0
 42
0.000000001
 43
0.00000001
 40
0.0
 40
0.0
 40
0.0
 40
0.0
 40
0.0583766041007786
 40
0.170608669295412
 40
0.2851348543341379
 40
0.4018442582953206
 40
0.5198218437898998
 40
0.6380995754931322
 40
0.7554169991014232
 40
0.8708762043732043
 40
0.975788193594757
 40
1.0
 40
1.0
 40
1.0
 40
1.0
 10
8.937725464646766
 20
7.517714875868499
 30
0.0
 10
8.938209226540032
 20
7.520728877837151
 30
0.0
 10
8.939623045896896
 20
7.529537455743422
 30
0.0
 10
8.943758534271435
 20
7.545818900066878
 30
0.0
 10
8.950995948207078
 20
7.566314570560642
 30
0.0
 10
8.960654451300387
 20
7.587381394600314
 30
0.0
 10
8.972423708679552
 20
7.608057182744539
 30
0.0
 10
8.985828086824716
 20
7.627414422976251
 30
0.0
 10
9.000209542031477
 20
7.644613219289087
 30
0.0
 10
9.014408487075503
 20
7.658601481262584
 30
0.0
 10
9.024427068111017
 20
7.666699277819524
 30
0.0
 10
9.029367799455574
 20
7.670164946726097
 30
0.0
 10
9.030294228470725
 20
7.670814789028388
 30
0.0
  0
SPLINE
  5
FE
330
1F
100
AcDbEntity
  8
0
  6
Continuous
 62
     7
370
    15
100
AcDbSpline
210
0.0
220
0.0
230
1.0
 70
     8
 71
     3
 72
    27
 73
    23
 74
     0
 42
0.000000001
 43
0.00000001
 40
0.0
 40
0.0
 40
0.0
 40
0.0
 40
0.026455945102687
 40
0.0769913975321964
 40
0.1276735513979226
 40
0.1785547753384228
 40
0.2296475151188486
 40
0.2809406809941535
 40
0.3324096767638164
 40
0.3840224787317369
 40
0.4357432181889124
 40
0.4875341868091547
 40
0.5393568657411154
 40
0.5911689945131231
 40
0.64292196735217
 40
0.6945767693986183
 40
0.7460948101449401
 40
0.7974388249862587
 40
0.848574680651345
 40
0.8994746216139277
 40
0.9501227527139607
 40
1.0
 40
1.0
 40
1.0
 40
1.0
 10
7.59370264475163
 20
5.073369989438427
 30
0.0
 10
7.594038951230599
 20
5.067278587636902
 30
0.0
 10
7.595017661524802
 20
5.049551549883796
 30
0.0
 10
7.593708141979517
 20
5.01745446244087
 30
0.0
 10
7.589837707425318
 20
4.977717347315037
 30
0.0
 10
7.582963409880436
 20
4.936114046646576
 30
0.0
 10
7.573237452194894
 20
4.89319070358072
 30
0.0
 10
7.560637525564087
 20
4.849303117518329
 30
0.0
 10
7.545239712607096
 20
4.80487689631125
 30
0.0
 10
7.527142638644871
 20
4.76032783253844
 30
0.0
 10
7.506484969619796
 20
4.716075515685584
 30
0.0
 10
7.483437597945913
 20
4.672533062256321
 30
0.0
 10
7.458203288176968
 20
4.63010504360426
 30
0.0
 10
7.431015456196322
 20
4.589184570266733
 30
0.0
 10
7.402134966368905
 20
4.550146144789432
 30
0.0
 10
7.371847417426018
 20
4.513341312722287
 30
0.0
 10
7.340458829780965
 20
4.479090403211993
 30
0.0
 10
7.308297980107715
 20
4.447691022847201
 30
0.0
 10
7.275703720396276
 20
4.419373177760259
 30
0.0
 10
7.24305946712729
 20
4.394440034174446
 30
0.0
 10
7.21076026217442
 20
4.372791935951975
 30
0.0
 10
7.189832453765352
 20
4.361373391045496
 30
0.0
 10
7.17944879252545
 20
4.355707900429186
 30
0.0
  0
LINE
  5
FF
330
1F
100
AcDbEntity
  8
0
  6
Continuous
 62
     7
370
    15
100
AcDbLine
 10
9.0252670142
 20
7.6674107893
 30
0.0
 11
9.806097656
 21
8.118174724
 31
0.0
  0
SPLINE
  5
100
330
1F
100
AcDbEntity
  8
0
  6
Continuous
 62
     7
370
    15
100
AcDbSpline
210
0.0
220
0.0
230
1.0
 70
     8
 71
     3
 72
     9
 73
     5
 74
     0
 42
0.000000001
 43
0.00000001
 40
0.0
 40
0.0
 40
0.0
 40
0.0
 40
0.5572476862496349
 40
1.0
 40
1.0
 40
1.0
 40
1.0
 10
6.609583865704008
 20
3.344438844346588
 30
0.0
 10
6.617246310300929
 20
3.340468445778882
 30
0.0
 10
6.630996828761561
 20
3.333343429981279
 30
0.0
 10
6.645966141529484
 20
3.329549878677992
 30
0.0
 10
6.652593839392733
 20
3.327870275061131
 30
0.0
  0
SPLINE
  5
101
330
1F
100
AcDbEntity
  8
0
  6
Continuous
 62
     7
370
    15
100
AcDbSpline
210
0.0
220
0.0
230
1.0
 70
     8
 71
     3
 72
    13
 73
     9
 74
     0
 42
0.000000001
 43
0.00000001
 40
0.0
 40
0.0
 40
0.0
 40
0.0
 40
0.0365204069769936
 40
0.296900045804698
 40
0.5135164081629703
 40
0.7201171932773383
 40
0.9399045958920677
 40
1.0
 40
1.0
 40
1.0
 40
1.0
 10
6.830006977263539
 20
3.626483751410815
 30
0.0
 10
6.829789536710155
 20
3.626570110988283
 30
0.0
 10
6.828021809688392
 20
3.627272188665624
 30
0.0
 10
6.825767245494154
 20
3.629655261215624
 30
0.0
 10
6.821676492022896
 20
3.636014577217318
 30
0.0
 10
6.818426991485028
 20
3.645985016358047
 30
0.0
 10
6.817041974036133
 20
3.656221899994296
 30
0.0
 10
6.816955550263651
 20
3.66299387190646
 30
0.0
 10
6.816936993669938
 20
3.664447924741769
 30
0.0
  0
SPLINE
  5
102
330
1F
100
AcDbEntity
  8
0
  6
Continuous
 62
     7
370
    15
100
AcDbSpline
210
0.0
220
0.0
230
1.0
 70
     8
 71
     3
 72
    22
 73
    18
 74
     0
 42
0.000000001
 43
0.00000001
 40
0.0
 40
0.0
 40
0.0
 40
0.0
 40
0.0376085407759375
 40
0.109996186242338
 40
0.1833471384757209
 40
0.2576434697357711
 40
0.3325800941373006
 40
0.4077816240011184
 40
0.4827997692297374
 40
0.5571747465054354
 40
0.6305514814244938
 40
0.7026943491539654
 40
0.7737095064664936
 40
0.8445326793245003
 40
0.9168121807672802
 40
0.9957056461556968
 40
1.0
 40
1.0
 40
1.0
 40
1.0
 10
6.816936993669938
 20
3.664447924741769
 30
0.0
 10
6.817002468703362
 20
3.66732977223765
 30
0.0
 10
6.817193967863449
 20
3.675758502184063
 30
0.0
 10
6.819458361249015
 20
3.691598787462826
 30
0.0
 10
6.824753013739172
 20
3.711799882743919
 30
0.0
 10
6.83277629357299
 20
3.732764713404032
 30
0.0
 10
6.843273188474302
 20
3.753552966876254
 30
0.0
 10
6.855864401172286
 20
3.773281299008057
 30
0.0
 10
6.86999721130212
 20
3.791101229240789
 30
0.0
 10
6.884987676253601
 20
3.806283072632745
 30
0.0
 10
6.900043435478553
 20
3.818265469036007
 30
0.0
 10
6.914297110987959
 20
3.826729075277553
 30
0.0
 10
6.926851469939824
 20
3.831637100701263
 30
0.0
 10
6.936846291140384
 20
3.833447997715386
 30
0.0
 10
6.943758603514532
 20
3.832734811064235
 30
0.0
 10
6.946532348355336
 20
3.832217618512907
 30
0.0
 10
6.947827254238017
 20
3.831061079258168
 30
0.0
 10
6.947894100371339
 20
3.831001375940537
 30
0.0
  0
LINE
  5
103
330
1F
100
AcDbEntity
  8
0
  6
Continuous
 62
     7
370
    15
100
AcDbLine
 10
6.3307764282
 20
3.5053582759
 30
0.0
 11
6.6091649248
 21
3.3446480177
 31
0.0
  0
SPLINE
  5
104
330
1F
100
AcDbEntity
  8
0
  6
Continuous
 62
     7
370
    15
100
AcDbSpline
210
0.0
220
0.0
230
1.0
 70
     8
 71
     3
 72
    23
 73
    19
 74
     0
 42
0.000000001
 43
0.00000001
 40
0.0
 40
0.0
 40
0.0
 40
0.0
 40
0.0251508160672564
 40
0.092783812852461
 40
0.1603259902515761
 40
0.227835354751378
 40
0.2954117253088123
 40
0.3631329957841483
 40
0.4310347200273079
 40
0.4991254410438241
 40
0.56739681305341
 40
0.6358302004386539
 40
0.7044009139613236
 40
0.7730808622539257
 40
0.8418401482319198
 40
0.9106479744327245
 40
0.9794731104385858
 40
1.0
 40
1.0
 40
1.0
 40
1.0
 10
8.549189080802758
 20
6.094288363571867
 30
0.0
 10
8.54819822635904
 20
6.098593187249464
 30
0.0
 10
8.544542867700926
 20
6.114474101546518
 30
0.0
 10
8.539987565726628
 20
6.144175191450558
 30
0.0
 10
8.536671997437352
 20
6.184249072703159
 30
0.0
 10
8.536187272033319
 20
6.226864192502259
 30
0.0
 10
8.538544722537662
 20
6.271633995625431
 30
0.0
 10
8.543817337372372
 20
6.318291359082985
 30
0.0
 10
8.552027126371508
 20
6.366517726604888
 30
0.0
 10
8.563173486446374
 20
6.415982727447107
 30
0.0
 10
8.57722451678685
 20
6.466339600333632
 30
0.0
 10
8.594120580611671
 20
6.517232895531526
 30
0.0
 10
8.613772298900376
 20
6.568304524666367
 30
0.0
 10
8.636071989931368
 20
6.619188922026778
 30
0.0
 10
8.660858400620462
 20
6.669549394042235
 30
0.0
 10
8.68805560441969
 20
6.718957221662931
 30
0.0
 10
8.710353900587599
 20
6.756036897704968
 30
0.0
 10
8.723767018861514
 20
6.776309181861603
 30
0.0
 10
8.726848421837381
 20
6.780966344756333
 30
0.0
  0
SPLINE
  5
105
330
1F
100
AcDbEntity
  8
0
  6
Continuous
 62
     7
370
    15
100
AcDbSpline
210
0.0
220
0.0
230
1.0
 70
     8
 71
     3
 72
    17
 73
    13
 74
     0
 42
0.000000001
 43
0.00000001
 40
0.0
 40
0.0
 40
0.0
 40
0.0
 40
0.0176950367119443
 40
0.0759979710786289
 40
0.2638973356125657
 40
0.4987050247140505
 40
0.690413459218372
 40
0.8393847230369793
 40
0.8833291501333602
 40
0.9227944625983537
 40
0.9585306132335035
 40
1.0
 40
1.0
 40
1.0
 40
1.0
 10
9.300414783740122
 20
9.105188337851276
 30
0.0
 10
9.299772095127539
 20
9.104802268578084
 30
0.0
 10
9.29701182786239
 20
9.10314414930227
 30
0.0
 10
9.283225974589385
 20
9.0955452214921
 30
0.0
 10
9.259481527085685
 20
9.0832225555083
 30
0.0
 10
9.22662381381324
 20
9.066514091493238
 30
0.0
 10
9.196485725809236
 20
9.04942507583413
 30
0.0
 10
9.177930264264065
 20
9.03744761117398
 30
0.0
 10
9.166013569212005
 20
9.028711210615741
 30
0.0
 10
9.16207404158391
 20
9.025840035041512
 30
0.0
 10
9.157843149857216
 20
9.022891489056075
 30
0.0
 10
9.15494077576106
 20
9.021347742246418
 30
0.0
 10
9.153381824447655
 20
9.020518549993197
 30
0.0
  0
SPLINE
  5
106
330
1F
100
AcDbEntity
  8
0
  6
Continuous
 62
     7
370
    15
100
AcDbSpline
210
0.0
220
0.0
230
1.0
 70
     8
 71
     3
 72
    14
 73
    10
 74
     0
 42
0.000000001
 43
0.00000001
 40
0.0
 40
0.0
 40
0.0
 40
0.0
 40
0.0267039474816046
 40
0.1903796532261042
 40
0.3560516016014364
 40
0.522993204735733
 40
0.6903570469693919
 40
0.8570884374240054
 40
1.0
 40
1.0
 40
1.0
 40
1.0
 10
9.307482166034848
 20
8.950670284192007
 30
0.0
 10
9.307319675544031
 20
8.949635094057195
 30
0.0
 10
9.306161236953042
 20
8.942254944024139
 30
0.0
 10
9.301387376145168
 20
8.927125892772535
 30
0.0
 10
9.293067524465316
 20
8.906248617312796
 30
0.0
 10
9.282075691564366
 20
8.885546308139425
 30
0.0
 10
9.269148158822667
 20
8.866196773902761
 30
0.0
 10
9.255447350390456
 20
8.849378019058411
 30
0.0
 10
9.246007482436722
 20
8.840630718428427
 30
0.0
 10
9.24165063766898
 20
8.836593518843813
 30
0.0
  0
LINE
  5
107
330
1F
100
AcDbEntity
  8
0
  6
Continuous
 62
     7
370
    15
100
AcDbLine
 10
6.6890130796
 20
3.3344334989
 30
0.0
 11
8.1068347138
 21
4.1529245062
 31
0.0
  0
LINE
  5
108
330
1F
100
AcDbEntity
  8
0
  6
Continuous
 62
     7
370
    15
100
AcDbLine
 10
9.9653478646
 20
9.4890033899
 30
0.0
 11
9.3008511179
 21
9.1053975833
 31
0.0
  0
SPLINE
  5
109
330
1F
100
AcDbEntity
  8
0
  6
Continuous
 62
     7
370
    15
100
AcDbSpline
210
0.0
220
0.0
230
1.0
 70
     8
 71
     3
 72
    18
 73
    14
 74
     0
 42
0.000000001
 43
0.00000001
 40
0.0
 40
0.0
 40
0.0
 40
0.0
 40
0.06384122336742
 40
0.1793064549036356
 40
0.2970137141112915
 40
0.4166406756319717
 40
0.5204750642905616
 40
0.6201498914348762
 40
0.7161471599217003
 40
0.8094373144463932
 40
0.9010421125435621
 40
0.9995482434049051
 40
0.9999999999999999
 40
0.9999999999999999
 40
0.9999999999999999
 40
0.9999999999999999
 10
6.264946429204972
 20
3.752474393337059
 30
0.0
 10
6.263070993628068
 20
3.746465723351364
 30
0.0
 10
6.25780358666189
 20
3.729589585066543
 30
0.0
 10
6.251954190798333
 20
3.701394603034444
 30
0.0
 10
6.248827926333078
 20
3.668153026657591
 30
0.0
 10
6.250077557980376
 20
3.636582070453671
 30
0.0
 10
6.255330368038064
 20
3.607586286009952
 30
0.0
 10
6.263892416348105
 20
3.58182713052491
 30
0.0
 10
6.275770657815698
 20
3.558545736408564
 30
0.0
 10
6.29066493827354
 20
3.53781353738413
 30
0.0
 10
6.309114003987004
 20
3.520008177239
 30
0.0
 10
6.322842698180938
 20
3.509033595422145
 30
0.0
 10
6.330978075201599
 20
3.505250235552081
 30
0.0
 10
6.331015214335398
 20
3.505232963985187
 30
0.0
  0
SPLINE
  5
10A
330
1F
100
AcDbEntity
  8
0
  6
Continuous
 62
     7
370
    15
100
AcDbSpline
210
0.0
220
0.0
230
1.0
 70
     8
 71
     3
 72
    25
 73
    21
 74
     0
 42
0.000000001
 43
0.00000001
 40
0.0
 40
0.0
 40
0.0
 40
0.0
 40
0.0496179739500652
 40
0.0743078562884277
 40
0.09613241995933
 40
0.118430564835494
 40
0.1724022673024499
 40
0.2229808752451912
 40
0.2713134409136894
 40
0.3184456461266856
 40
0.3651056000278918
 40
0.3992617585319198
 40
0.4267502380703897
 40
0.5643042326952008
 40
0.6559637602638946
 40
0.7391140154251953
 40
0.832883340776987
 40
0.9079166016076957
 40
0.9770428099503216
 40
1.0
 40
1.0
 40
1.0
 40
1.0
 10
10.06426391930574
 20
8.603720866745922
 30
0.0
 10
10.07024681070675
 20
8.608085367198811
 30
0.0
 10
10.07920678627655
 20
8.61462164118594
 30
0.0
 10
10.09016347018001
 20
8.622086840075943
 30
0.0
 10
10.09942172869967
 20
8.628582851262708
 30
0.0
 10
10.11184135300958
 20
8.638373962414367
 30
0.0
 10
10.12737468112173
 20
8.652598639456183
 30
0.0
 10
10.14444911828236
 20
8.672094757771427
 30
0.0
 10
10.15877701651801
 20
8.69276521156849
 30
0.0
 10
10.17014960878968
 20
8.714408827715117
 30
0.0
 10
10.17766241204314
 20
8.735186885616038
 30
0.0
 10
10.1815247069529
 20
8.752473451757904
 30
0.0
 10
10.18882130742167
 20
8.783176079681269
 30
0.0
 10
10.19808693155171
 20
8.822883948999246
 30
0.0
 10
10.21129658709751
 20
8.871196938967545
 30
0.0
 10
10.22530617080021
 20
8.912924026837695
 30
0.0
 10
10.24032659688461
 20
8.952454336566262
 30
0.0
 10
10.25535417764904
 20
8.98947471985084
 30
0.0
 10
10.26778358331087
 20
9.015235446783901
 30
0.0
 10
10.27532990678173
 20
9.029126663155916
 30
0.0
 10
10.27721127068795
 20
9.032589863904812
 30
0.0
  0
SPLINE
  5
10B
330
1F
100
AcDbEntity
  8
0
  6
Continuous
 62
     7
370
    15
100
AcDbSpline
210
0.0
220
0.0
230
1.0
 70
     8
 71
     3
 72
    27
 73
    23
 74
     0
 42
0.000000001
 43
0.00000001
 40
0.0
 40
0.0
 40
0.0
 40
0.0
 40
0.044052140521333
 40
0.0910773275041405
 40
0.1398626674133979
 40
0.1823350574813599
 40
0.2233395961559189
 40
0.2587825257069947
 40
0.2758044481851991
 40
0.2907353623015168
 40
0.3062267171650945
 40
0.3767442663332237
 40
0.4407504701267521
 40
0.4984811402942081
 40
0.5519657677998462
 40
0.6104478202277568
 40
0.6827823526803555
 40
0.7484194703563292
 40
0.8083223073627196
 40
0.8708825012418951
 40
0.9354302977847566
 40
1.0
 40
1.0
 40
1.0
 40
1.0
 10
9.851009970729276
 20
8.162219298844365
 30
0.0
 10
9.855002367665168
 20
8.168997348517058
 30
0.0
 10
9.86325660546051
 20
8.183010893433913
 30
0.0
 10
9.872476853240205
 20
8.20615614356353
 30
0.0
 10
9.878456405736966
 20
8.229564740772412
 30
0.0
 10
9.881404918168803
 20
8.251771025128022
 30
0.0
 10
9.882481521659498
 20
8.270586796833834
 30
0.0
 10
9.883172122895912
 20
8.284522461698447
 30
0.0
 10
9.884032845107395
 20
8.292121383582652
 30
0.0
 10
9.885357454235931
 20
8.29965935054056
 30
0.0
 10
9.888166615021145
 20
8.315043030732774
 30
0.0
 10
9.893476256405522
 20
8.3386510749717
 30
0.0
 10
9.90261882224967
 20
8.369331801880799
 30
0.0
 10
9.913179783724802
 20
8.397618573568133
 30
0.0
 10
9.925898079417383
 20
8.42479710918724
 30
0.0
 10
9.941470981384015
 20
8.453730692103758
 30
0.0
 10
9.95925242875964
 20
8.483947517594741
 30
0.0
 10
9.978798698338345
 20
8.513152004388084
 30
0.0
 10
9.998717296687575
 20
8.539399410692566
 30
0.0
 10
10.01970100899757
 20
8.563064301393238
 30
0.0
 10
10.04207970406474
 20
8.585034928668772
 30
0.0
 10
10.05767864241754
 20
8.598910476153826
 30
0.0
 10
10.06547943482757
 20
8.605849426937423
 30
0.0
  0
SPLINE
  5
10C
330
1F
100
AcDbEntity
  8
0
  6
Continuous
 62
     7
370
    15
100
AcDbSpline
210
0.0
220
0.0
230
1.0
 70
     8
 71
     3
 72
    25
 73
    21
 74
     0
 42
0.000000001
 43
0.00000001
 40
0.0
 40
0.0
 40
0.0
 40
0.0
 40
0.0243162605668721
 40
0.0841464908614948
 40
0.1434359532381884
 40
0.2023950109897594
 40
0.26129343174713
 40
0.3202516332574775
 40
0.379369199031167
 40
0.4386895071399118
 40
0.4982214506480592
 40
0.55795316438431
 40
0.617860630638968
 40
0.6779130021636566
 40
0.7380758017544823
 40
0.7983127547236798
 40
0.8585867586941406
 40
0.9188593020960504
 40
0.9790812387439219
 40
1.0
 40
1.0
 40
1.0
 40
1.0
 10
8.307752296349534
 20
5.207933900445769
 30
0.0
 10
8.306373566779772
 20
5.211541505025314
 30
0.0
 10
8.301602469068285
 20
5.224025631231705
 30
0.0
 10
8.294878322394382
 20
5.247937342009208
 30
0.0
 10
8.288688678933752
 20
5.280712343974551
 30
0.0
 10
8.28507868332328
 20
5.316392829216955
 30
0.0
 10
8.284137905184481
 20
5.354617734626594
 30
0.0
 10
8.285984081760164
 20
5.395136571673261
 30
0.0
 10
8.290688621045227
 20
5.437627670980887
 30
0.0
 10
8.298294071349037
 20
5.481756190330278
 30
0.0
 10
8.308806076718513
 20
5.527158757003113
 30
0.0
 10
8.322194325162423
 20
5.573454939446153
 30
0.0
 10
8.338393054448447
 20
5.620253779336863
 30
0.0
 10
8.35730321811184
 20
5.667159344863221
 30
0.0
 10
8.378793133606948
 20
5.713777699244919
 30
0.0
 10
8.402705519214765
 20
5.759713318711482
 30
0.0
 10
8.428840729135215
 20
5.804601770417954
 30
0.0
 10
8.457026345568703
 20
5.848001573271079
 30
0.0
 10
8.480383942009883
 20
5.880731545427142
 30
0.0
 10
8.494401932222639
 20
5.898658115862059
 30
0.0
 10
8.498015889190297
 20
5.903279738016606
 30
0.0
  0
LINE
  5
10D
330
1F
100
AcDbEntity
  8
0
  6
Continuous
 62
     7
370
    15
100
AcDbLine
 10
10.277147032
 20
9.0326417511
 30
0.0
 11
10.3711566413
 21
9.217867544
 31
0.0
  0
SPLINE
  5
10E
330
1F
100
AcDbEntity
  8
0
  6
Continuous
 62
     7
370
    15
100
AcDbSpline
210
0.0
220
0.0
230
1.0
 70
     8
 71
     3
 72
    14
 73
    10
 74
     0
 42
0.000000001
 43
0.00000001
 40
0.0
 40
0.0
 40
0.0
 40
0.0
 40
0.1569148164135132
 40
0.3023254704262688
 40
0.4419792945935741
 40
0.5822244397209395
 40
0.7245403941917508
 40
0.8683137565218748
 40
1.0
 40
1.0
 40
1.0
 40
1.0
 10
10.3710665092244
 20
9.217871738107956
 30
0.0
 10
10.37349582182059
 20
9.223079588436361
 30
0.0
 10
10.37817634269325
 20
9.233113477118328
 30
0.0
 10
10.38171110356154
 20
9.249198415161985
 30
0.0
 10
10.38207229761956
 20
9.265142869346597
 30
0.0
 10
10.37884815636106
 20
9.280776248874592
 30
0.0
 10
10.37190060296368
 20
9.295315013206011
 30
0.0
 10
10.36189759441384
 20
9.30770911589868
 30
0.0
 10
10.35326682309101
 20
9.313490716934707
 30
0.0
 10
10.34914079579025
 20
9.316254669636555
 30
0.0
  0
SPLINE
  5
10F
330
1F
100
AcDbEntity
  8
0
  6
Continuous
 62
     7
370
    15
100
AcDbSpline
210
0.0
220
0.0
230
1.0
 70
     8
 71
     3
 72
    16
 73
    12
 74
     0
 42
0.000000001
 43
0.00000001
 40
0.0
 40
0.0
 40
0.0
 40
0.0
 40
0.0569468547632124
 40
0.1914099308194438
 40
0.3263216052450678
 40
0.4632672971080192
 40
0.6036323155498675
 40
0.733572742005555
 40
0.8595126388231543
 40
0.9783533396859897
 40
1.0
 40
1.0
 40
1.0
 40
1.0
 10
8.497684787823781
 20
5.903192734811305
 30
0.0
 10
8.50033618810677
 20
5.906239591666585
 30
0.0
 10
8.509248082307986
 20
5.916480695627649
 30
0.0
 10
8.522461155140016
 20
5.935916047320871
 30
0.0
 10
8.536216295615391
 20
5.961702076202601
 30
0.0
 10
8.546747431276978
 20
5.989208794954428
 30
0.0
 10
8.553434836483792
 20
6.017054495822744
 30
0.0
 10
8.556129748516248
 20
6.044342229225917
 30
0.0
 10
8.554799017912243
 20
6.069905741934159
 30
0.0
 10
8.551456773351592
 20
6.087783653031014
 30
0.0
 10
8.548383683108604
 20
6.096809744612159
 30
0.0
 10
8.547910173320629
 20
6.098200508427377
 30
0.0
  0
LINE
  5
110
330
1F
100
AcDbEntity
  8
0
  6
Continuous
 62
     7
370
    15
100
AcDbLine
 10
10.3491407958
 20
9.3162546696
 30
0.0
 11
10.0429134496
 21
9.4930359537
 31
0.0
  0
SPLINE
  5
111
330
1F
100
AcDbEntity
  8
0
  6
Continuous
 62
     7
370
    15
100
AcDbSpline
210
0.0
220
0.0
230
1.0
 70
     8
 71
     3
 72
    11
 73
     7
 74
     0
 42
0.000000001
 43
0.00000001
 40
0.0
 40
0.0
 40
0.0
 40
0.0
 40
0.1747497796681052
 40
0.5356302471825711
 40
0.887916590286973
 40
1.0
 40
1.0
 40
1.0
 40
1.0
 10
9.805785456419265
 20
8.118553078352667
 30
0.0
 10
9.809051627009328
 20
8.120325957554908
 30
0.0
 10
9.819062854284224
 20
8.125760057255208
 30
0.0
 10
9.833231008100691
 20
8.138366789719784
 30
0.0
 10
9.845292860466538
 20
8.15129096378728
 30
0.0
 10
9.850123590192757
 20
8.15989651582406
 30
0.0
 10
9.851289567640325
 20
8.161973609796899
 30
0.0
  0
SPLINE
  5
112
330
1F
100
AcDbEntity
  8
0
  6
Continuous
 62
     7
370
    15
100
AcDbSpline
210
0.0
220
0.0
230
1.0
 70
     8
 71
     3
 72
    13
 73
     9
 74
     0
 42
0.000000001
 43
0.00000001
 40
0.0
 40
0.0
 40
0.0
 40
0.0
 40
0.2068955344706868
 40
0.3831005817617489
 40
0.5553998776468477
 40
0.7313103081463371
 40
0.9239330272591667
 40
1.0
 40
1.0
 40
1.0
 40
1.0
 10
10.0429134496071
 20
9.493035953692655
 30
0.0
 10
10.03777191322087
 20
9.495507943818682
 30
0.0
 10
10.02825152610497
 20
9.500085233791678
 30
0.0
 10
10.01299745670869
 20
9.502260145688089
 30
0.0
 10
9.998562693755957
 20
9.501598039935232
 30
0.0
 10
9.984126578270992
 20
9.497975071348673
 30
0.0
 10
9.972689326571292
 20
9.493409153103835
 30
0.0
 10
9.966476646867902
 20
9.489418885638969
 30
0.0
 10
9.964717815948918
 20
9.488289227242383
 30
0.0
  0
SPLINE
  5
113
330
1F
100
AcDbEntity
  8
0
  6
Continuous
 62
     7
370
    15
100
AcDbSpline
210
0.0
220
0.0
230
1.0
 70
     8
 71
     3
 72
    22
 73
    18
 74
     0
 42
0.000000001
 43
0.00000001
 40
0.0
 40
0.0
 40
0.0
 40
0.0
 40
0.0597484166264016
 40
0.1345228788319034
 40
0.2059696830252081
 40
0.2755411492609634
 40
0.3442154983956984
 40
0.4125542728462293
 40
0.4808510140221368
 40
0.5492526577859967
 40
0.6178662014733787
 40
0.6867343147890604
 40
0.7558607033176958
 40
0.8252259457877403
 40
0.8947973164195523
 40
0.9645347778174886
 40
1.0
 40
1.0
 40
1.0
 40
1.0
 10
8.137659718623821
 20
4.355654425764619
 30
0.0
 10
8.133879017966862
 20
4.360582413188535
 30
0.0
 10
8.125366813542167
 20
4.371677720688609
 30
0.0
 10
8.113833832348808
 20
4.393420139646681
 30
0.0
 10
8.10338776262967
 20
4.419941157262516
 30
0.0
 10
8.095309855944526
 20
4.4495449672264
 30
0.0
 10
8.08964822702196
 20
4.482034726318005
 30
0.0
 10
8.086538904517168
 20
4.517298056937556
 30
0.0
 10
8.086109098818289
 20
4.555096608779889
 30
0.0
 10
8.088465389507322
 20
4.595144644350132
 30
0.0
 10
8.09368062352965
 20
4.63711627014334
 30
0.0
 10
8.101791591311482
 20
4.680662325253382
 30
0.0
 10
8.11280069316158
 20
4.725406626356891
 30
0.0
 10
8.126659157289403
 20
4.770960832406011
 30
0.0
 10
8.143331251768323
 20
4.816910276461344
 30
0.0
 10
8.159398442808511
 20
4.855337911902383
 30
0.0
 10
8.170179004434182
 20
4.878230533222301
 30
0.0
 10
8.173813274970772
 20
4.885947939982464
 30
0.0
  0
SPLINE
  5
114
330
1F
100
AcDbEntity
  8
0
  6
Continuous
 62
     7
370
    15
100
AcDbSpline
210
0.0
220
0.0
230
1.0
 70
     8
 71
     3
 72
    13
 73
     9
 74
     0
 42
0.000000001
 43
0.00000001
 40
0.0
 40
0.0
 40
0.0
 40
0.0
 40
0.0966378490747006
 40
0.2851435853109685
 40
0.4740548457790465
 40
0.6629547981952528
 40
0.8512138826966139
 40
1.0
 40
1.0
 40
1.0
 40
1.0
 10
8.17588384152748
 20
4.890560540900462
 30
0.0
 10
8.178182608742345
 20
4.895895383784671
 30
0.0
 10
8.184965445195326
 20
4.911636589136811
 30
0.0
 10
8.198039763457999
 20
4.937538899824461
 30
0.0
 10
8.215642413082824
 20
4.967530481594618
 30
0.0
 10
8.235097504014007
 20
4.995991828238111
 30
0.0
 10
8.25448684183853
 20
5.02079019725032
 30
0.0
 10
8.267564363473939
 20
5.035051360214633
 30
0.0
 10
8.27333733890176
 20
5.041346845373089
 30
0.0
  0
SPLINE
  5
115
330
1F
100
AcDbEntity
  8
0
  6
Continuous
 62
     7
370
    15
100
AcDbSpline
210
0.0
220
0.0
230
1.0
 70
     8
 71
     3
 72
    14
 73
    10
 74
     0
 42
0.000000001
 43
0.00000001
 40
0.0
 40
0.0
 40
0.0
 40
0.0
 40
0.1012101494051856
 40
0.2669386053239222
 40
0.4372084129385178
 40
0.59528133528082
 40
0.7486504627073137
 40
0.8957663754410308
 40
1.0
 40
1.0
 40
1.0
 40
1.0
 10
8.283572740002318
 20
5.05410877675493
 30
0.0
 10
8.286574187736766
 20
5.058811549658516
 30
0.0
 10
8.294490412313998
 20
5.071214966187554
 30
0.0
 10
8.304735562150427
 20
5.093136847764045
 30
0.0
 10
8.312824103789152
 20
5.118923601270335
 30
0.0
 10
8.316864059461853
 20
5.144637084914188
 30
0.0
 10
8.316892052981775
 20
5.169158543342216
 30
0.0
 10
8.3136524363276
 20
5.190553538432197
 30
0.0
 10
8.309294708159937
 20
5.20320827771189
 30
0.0
 10
8.307487576121222
 20
5.208456146306274
 30
0.0
  0
ARC
  5
116
330
1F
100
AcDbEntity
  8
0
  6
Continuous
 62
     7
370
    15
100
AcDbCircle
 10
8.0850849845
 20
4.928548525
 30
0.0
 40
0.0984251968503937
100
AcDbArc
 50
334.3532184648
 51
337.2967781208
  0
ARC
  5
117
330
1F
100
AcDbEntity
  8
0
  6
Continuous
 62
     7
370
    15
100
AcDbCircle
 10
8.201939422
 20
5.1090953276
 30
0.0
 40
0.0984251968503946
100
AcDbArc
 50
316.5023693137
 51
326.0365897578
  0
SPLINE
  5
118
330
1F
100
AcDbEntity
  8
0
  6
Continuous
 62
     7
370
    15
100
AcDbSpline
210
0.0
220
0.0
230
1.0
 70
     8
 71
     3
 72
    21
 73
    17
 74
     0
 42
0.000000001
 43
0.00000001
 40
0.0
 40
0.0
 40
0.0
 40
0.0
 40
0.0125809180020648
 40
0.0844298365065346
 40
0.1579911630924429
 40
0.2349795737134594
 40
0.3167338642794617
 40
0.4039668063705515
 40
0.4868106474460233
 40
0.5673285315259391
 40
0.6453947509407182
 40
0.7221827459387683
 40
0.7985739417713908
 40
0.874968366638303
 40
0.9514913667082258
 40
1.0
 40
1.0
 40
1.0
 40
1.0
 10
8.103650782280472
 20
4.15108646167896
 30
0.0
 10
8.104743563102728
 20
4.151380364841607
 30
0.0
 10
8.112077154033488
 20
4.153352732515176
 30
0.0
 10
8.124748846003364
 20
4.160128402555799
 30
0.0
 10
8.141265928029208
 20
4.171415725589315
 30
0.0
 10
8.156282244802423
 20
4.186186279988074
 30
0.0
 10
8.169515172831373
 20
4.204187206251679
 30
0.0
 10
8.179759176814166
 20
4.224695637233224
 30
0.0
 10
8.186256529771818
 20
4.246464962088671
 30
0.0
 10
8.188767380957241
 20
4.26814166972094
 30
0.0
 10
8.187405829796377
 20
4.289359626785215
 30
0.0
 10
8.182266907981514
 20
4.309614380343092
 30
0.0
 10
8.173504849370063
 20
4.328480340939409
 30
0.0
 10
8.161211513471924
 20
4.345153579239506
 30
0.0
 10
8.148075435218145
 20
4.357997883707812
 30
0.0
 10
8.138205197351665
 20
4.363490451933618
 30
0.0
 10
8.134375832443805
 20
4.365621408482228
 30
0.0
  0
LINE
  5
119
330
1F
100
AcDbEntity
  8
0
  6
Continuous
 62
     7
370
    15
100
AcDbLine
 10
8.1345646656
 20
4.3661905311
 30
0.0
 11
8.1267735031
 21
4.3706882735
 31
0.0
  0
LWPOLYLINE
  5
11A
330
1F
100
AcDbEntity
  8
0
  6
Continuous
 62
     7
370
    15
100
AcDbPolyline
 90
       17
 70
   128
 43
0.0
 10
9.2069881859
 20
8.4781516031
 10
9.2086622799
 20
8.4888367986
 10
9.213429696
 20
8.4998281377
 10
9.2205646386
 20
8.5094522886
 10
9.2289808771
 20
8.5162440616
 10
9.2373971157
 20
8.5191694708
 10
9.2445320583
 20
8.5177831492
 10
9.2492994744
 20
8.5122961517
 10
9.2509735684
 20
8.5035438239
 10
9.2492994744
 20
8.4928586284
 10
9.2445320583
 20
8.4818672893
 10
9.2373971157
 20
8.4722431384
 10
9.2289808771
 20
8.4654513654
 10
9.2205646386
 20
8.4625259562
 10
9.213429696
 20
8.4639122778
 10
9.2086622799
 20
8.4693992753
 10
9.2069881859
 20
8.4781516031
  0
LWPOLYLINE
  5
11B
330
1F
100
AcDbEntity
  8
0
  6
Continuous
 62
     7
370
    15
100
AcDbPolyline
 90
       71
 70
   128
 43
0.0
 10
7.1500773943
 20
4.337112544
 10
7.1518705307
 20
4.3842542533
 10
7.1572355026
 20
4.4330867166
 10
7.1661291143
 20
4.4832167634
 10
7.1784797599
 20
4.5342407762
 10
7.194187999
 20
4.5857479395
 10
7.2131273583
 20
4.6373235481
 10
7.2351453492
 20
4.6885523453
 10
7.2600646956
 20
4.7390218672
 10
7.2876847618
 20
4.7883257627
 10
7.3177831671
 20
4.8360670658
 10
7.3501175769
 20
4.8818613918
 10
7.3844276535
 20
4.9253400315
 10
7.4204371525
 20
4.9661529206
 10
7.4578561464
 20
5.0039714576
 10
7.4963833595
 20
5.03849115
 10
7.5357085934
 20
5.0694340655
 10
7.5755152245
 20
5.0965510699
 10
7.615482753
 20
5.119623833
 10
7.655289384
 20
5.1384665865
 10
7.6946146179
 20
5.1529276197
 10
7.7331418311
 20
5.1628905007
 10
7.770560825
 20
5.1682750144
 10
7.8065703239
 20
5.1690378079
 10
7.8408804006
 20
5.1651727395
 10
7.8732148104
 20
5.1567109284
 10
7.9033132157
 20
5.1437205043
 10
7.9309332819
 20
5.1263060584
 10
7.9558526283
 20
5.1046078016
 10
7.9778706191
 20
5.0788004354
 10
7.9968099784
 20
5.0490917456
 10
8.0125182176
 20
5.0157209292
 10
8.0248688631
 20
4.9789566682
 10
8.0337624749
 20
4.939094967
 10
8.0391274468
 20
4.8964567685
 10
8.0409205832
 20
4.8513853703
 10
8.0391274468
 20
4.804243661
 10
8.0337624749
 20
4.7554111978
 10
8.0248688631
 20
4.7052811509
 10
8.0125182176
 20
4.6542571382
 10
7.9968099784
 20
4.6027499748
 10
7.9778706191
 20
4.5511743663
 10
7.9558526283
 20
4.499945569
 10
7.9309332819
 20
4.4494760472
 10
7.9033132157
 20
4.4001721517
 10
7.8732148104
 20
4.3524308485
 10
7.8408804006
 20
4.3066365225
 10
7.8065703239
 20
4.2631578828
 10
7.770560825
 20
4.2223449937
 10
7.7331418311
 20
4.1845264567
 10
7.6946146179
 20
4.1500067643
 10
7.655289384
 20
4.1190638488
 10
7.615482753
 20
4.0919468445
 10
7.5755152245
 20
4.0688740814
 10
7.5357085934
 20
4.0500313278
 10
7.4963833595
 20
4.0355702947
 10
7.4578561464
 20
4.0256074136
 10
7.4204371525
 20
4.0202228999
 10
7.3844276535
 20
4.0194601064
 10
7.3501175769
 20
4.0233251749
 10
7.3177831671
 20
4.0317869859
 10
7.2876847618
 20
4.04477741
 10
7.2600646956
 20
4.0621918559
 10
7.2351453492
 20
4.0838901127
 10
7.2131273583
 20
4.1096974789
 10
7.194187999
 20
4.1394061687
 10
7.1784797599
 20
4.1727769851
 10
7.1661291143
 20
4.2095412461
 10
7.1572355026
 20
4.2494029473
 10
7.1518705307
 20
4.2920411458
 10
7.1500773943
 20
4.337112544
  0
LWPOLYLINE
  5
11C
330
1F
100
AcDbEntity
  8
0
  6
Continuous
 62
     7
370
    15
100
AcDbPolyline
 90
       65
 70
   128
 43
0.0
 10
7.6094184136
 20
5.5024081997
 10
7.6112281111
 20
5.5459912008
 10
7.6166397754
 20
5.5912439061
 10
7.6256012891
 20
5.6377305072
 10
7.6380263479
 20
5.6850033129
 10
7.6537952918
 20
5.7326070602
 10
7.6727562573
 20
5.7800832989
 10
7.6947266397
 20
5.8269748069
 10
7.7194948524
 20
5.8728299933
 10
7.7468223639
 20
5.9172072478
 10
7.7764459953
 20
5.9596791929
 10
7.808080455
 20
5.9998368007
 10
7.8414210856
 20
6.0372933315
 10
7.8761467988
 20
6.0716880584
 10
7.9119231669
 20
6.1026897414
 10
7.948405644
 20
6.1299998173
 10
7.9852428839
 20
6.1533552751
 10
8.0220801237
 20
6.1725311891
 10
8.0585626008
 20
6.1873428847
 10
8.0943389689
 20
6.1976477171
 10
8.1290646821
 20
6.2033464453
 10
8.1624053128
 20
6.2043841873
 10
8.1940397724
 20
6.2007509491
 10
8.2236634039
 20
6.1924817208
 10
8.2509909154
 20
6.1796561395
 10
8.2757591281
 20
6.1623977227
 10
8.2977295105
 20
6.1408726784
 10
8.3166904759
 20
6.1152883043
 10
8.3324594198
 20
6.0858909922
 10
8.3448844787
 20
6.0529638541
 10
8.3538459924
 20
6.0168239964
 10
8.3592576566
 20
5.9778194657
 10
8.3610673542
 20
5.9363258969
 10
8.3592576566
 20
5.8927428959
 10
8.3538459924
 20
5.8474901906
 10
8.3448844787
 20
5.8010035894
 10
8.3324594198
 20
5.7537307837
 10
8.3166904759
 20
5.7061270365
 10
8.2977295105
 20
5.6586507978
 10
8.2757591281
 20
5.6117592898
 10
8.2509909154
 20
5.5659041033
 10
8.2236634039
 20
5.5215268489
 10
8.1940397724
 20
5.4790549037
 10
8.1624053128
 20
5.4388972959
 10
8.1290646821
 20
5.4014407651
 10
8.0943389689
 20
5.3670460382
 10
8.0585626008
 20
5.3360443553
 10
8.0220801237
 20
5.3087342794
 10
7.9852428839
 20
5.2853788215
 10
7.948405644
 20
5.2662029076
 10
7.9119231669
 20
5.251391212
 10
7.8761467988
 20
5.2410863795
 10
7.8414210856
 20
5.2353876514
 10
7.808080455
 20
5.2343499094
 10
7.7764459953
 20
5.2379831476
 10
7.7468223639
 20
5.2462523759
 10
7.7194948524
 20
5.2590779571
 10
7.6947266397
 20
5.2763363739
 10
7.6727562573
 20
5.2978614183
 10
7.6537952918
 20
5.3234457923
 10
7.6380263479
 20
5.3528431045
 10
7.6256012891
 20
5.3857702425
 10
7.6166397754
 20
5.4219101002
 10
7.6112281111
 20
5.4609146309
 10
7.6094184136
 20
5.5024081997
  0
LWPOLYLINE
  5
11D
330
1F
100
AcDbEntity
  8
0
  6
Continuous
 62
     7
370
    15
100
AcDbPolyline
 90
       36
 70
   128
 43
0.0
 10
6.8054057646
 20
3.6483768989
 10
6.8071952917
 20
3.6723704421
 10
6.812506356
 20
3.697658957
 10
6.8211682556
 20
3.7234296499
 10
6.8329025899
 20
3.7488542297
 10
6.8473322078
 20
3.7731155294
 10
6.8639933294
 20
3.7954337708
 10
6.8823504526
 20
3.8150916273
 10
6.9018135644
 20
3.8314572793
 10
6.9217571043
 20
3.8440047212
 10
6.9415400705
 20
3.8523306678
 10
6.9605266223
 20
3.8561675165
 10
6.9781065162
 20
3.8553919478
 10
6.9937147199
 20
3.850028889
 10
7.0068495731
 20
3.8402507133
 10
7.0170889106
 20
3.8263716993
 10
7.0241036318
 20
3.80883793
 10
7.0276682777
 20
3.788212955
 10
7.0276682777
 20
3.7651596782
 10
7.0241036318
 20
3.7404190507
 10
7.0170889106
 20
3.7147862566
 10
7.0068495731
 20
3.6890851552
 10
6.9937147199
 20
3.6641418008
 10
6.9781065162
 20
3.6407578936
 10
6.9605266223
 20
3.6196850114
 10
6.9415400705
 20
3.601600454
 10
6.9217571043
 20
3.587085474
 10
6.9018135644
 20
3.5766065949
 10
6.8823504526
 20
3.5705006163
 10
6.8639933294
 20
3.5689637895
 10
6.8473322078
 20
3.5720455094
 10
6.8329025899
 20
3.5796467269
 10
6.8211682556
 20
3.5915231326
 10
6.812506356
 20
3.6072930092
 10
6.8071952917
 20
3.6264494997
 10
6.8054057646
 20
3.6483768989
  0
ARC
  5
11E
330
1F
100
AcDbEntity
  8
0
  6
Continuous
 62
     7
370
    15
100
AcDbCircle
 10
9.2479119544
 20
7.4363399198
 30
0.0
 40
0.3426502672451248
100
AcDbArc
 50
126.7606098116
 51
168.8673700017
  0
LINE
  5
11F
330
1F
100
AcDbEntity
  8
0
  6
Continuous
 62
     7
370
    15
100
AcDbLine
 10
8.7059433811
 20
6.7823376445
 30
0.0
 11
8.9117093841
 21
7.5024991015
 31
0.0
  0
LWPOLYLINE
  5
120
330
1F
100
AcDbEntity
  8
0
  6
Continuous
 62
     7
370
    15
100
AcDbPolyline
 90
       14
 70
   128
 43
0.0
 10
8.5234239276
 20
6.0293135126
 10
8.5141877342
 20
6.0780708008
 10
8.508956029
 20
6.1298493406
 10
8.507766486
 20
6.1842762707
 10
8.5106276712
 20
6.2409596587
 10
8.517518981
 20
6.2994913229
 10
8.5283907905
 20
6.3594497725
 10
8.5431648109
 20
6.4204032418
 10
8.5617346534
 20
6.4819128004
 10
8.5839665952
 20
6.5435355129
 10
8.6097005422
 20
6.6048276296
 10
8.6387511824
 20
6.6653477811
 10
8.6709093197
 20
6.724660157
 10
8.7059433811
 20
6.7823376445
  0
ARC
  5
121
330
1F
100
AcDbEntity
  8
0
  6
Continuous
 62
     7
370
    15
100
AcDbCircle
 10
8.4115987652
 20
6.0070918847
 30
0.0
 40
0.1140116998687729
100
AcDbArc
 50
314.7731065505
 51
11.2392650009
  0
LWPOLYLINE
  5
122
330
1F
100
AcDbEntity
  8
0
  6
Continuous
 62
     7
370
    15
100
AcDbPolyline
 90
       17
 70
   128
 43
0.0
 10
8.2854928808
 20
5.1322280343
 10
8.272743963
 20
5.1710621709
 10
8.2634949404
 20
5.2130149405
 10
8.2578148286
 20
5.2577732942
 10
8.2557460123
 20
5.3050032482
 10
8.2573039287
 20
5.3543523757
 10
8.2624769528
 20
5.4054524369
 10
8.2712264839
 20
5.4579221265
 10
8.2834872335
 20
5.5113699192
 10
8.2991677128
 20
5.5653969912
 10
8.318150915
 20
5.619600196
 10
8.3402951888
 20
5.6735750731
 10
8.3654352951
 20
5.7269188654
 10
8.3933836401
 20
5.7792335252
 10
8.4239316751
 20
5.8301286839
 10
8.4568514528
 20
5.8792245654
 10
8.4918973279
 20
5.9261548195
  0
ARC
  5
123
330
1F
100
AcDbEntity
  8
0
  6
Continuous
 62
     7
370
    15
100
AcDbCircle
 10
8.2110758873
 20
5.1154393462
 30
0.0
 40
0.0762872791893434
100
AcDbArc
 50
322.4234404107
 51
12.7132573075
  0
ARC
  5
124
330
1F
100
AcDbEntity
  8
0
  6
Continuous
 62
     7
370
    15
100
AcDbCircle
 10
8.7118573091
 20
4.6558421075
 30
0.0
 40
0.6037498418101185
100
AcDbArc
 50
136.8285753276
 51
157.3475023938
  0
LWPOLYLINE
  5
125
330
1F
100
AcDbEntity
  8
0
  6
Continuous
 62
     7
370
    15
100
AcDbPolyline
 90
       15
 70
   128
 43
0.0
 10
8.143155168
 20
4.2389656544
 10
8.1202824571
 20
4.2671837249
 10
8.1007457753
 20
4.2995455367
 10
8.0847050754
 20
4.3357861335
 10
8.0722916877
 20
4.3756088022
 10
8.0636072444
 20
4.4186875024
 10
8.0587228478
 20
4.4646695351
 10
8.057678488
 20
4.5131784313
 10
8.0604827154
 20
4.5638170335
 10
8.067112571
 20
4.6161707477
 10
8.077513774
 20
4.6698109376
 10
8.0916011666
 20
4.7242984344
 10
8.109259411
 20
4.779187132
 10
8.1303439335
 20
4.8340276394
 10
8.1546821086
 20
4.8883709604
  0
LWPOLYLINE
  5
126
330
1F
100
AcDbEntity
  8
0
  6
Continuous
 62
     7
370
    15
100
AcDbPolyline
 90
       10
 70
   128
 43
0.0
 10
8.1362934642
 20
4.203224101
 10
8.1421551183
 20
4.2040661628
 10
8.1484043232
 20
4.2081231613
 10
8.1539475858
 20
4.2146851982
 10
8.1578149396
 20
4.2226040409
 10
8.1593296708
 20
4.2304940412
 10
8.1582267299
 20
4.2369745978
 10
8.1546991107
 20
4.2409117356
 10
8.1493640802
 20
4.2416165297
 10
8.143155168
 20
4.2389656544
  0
LINE
  5
127
330
1F
100
AcDbEntity
  8
0
  6
Continuous
 62
     7
370
    15
100
AcDbLine
 10
6.7275355758
 20
3.3899654828
 30
0.0
 11
8.1362934642
 21
4.203224101
 31
0.0
  0
ARC
  5
128
330
1F
100
AcDbEntity
  8
0
  6
Continuous
 62
     7
370
    15
100
AcDbCircle
 10
6.8029698233
 20
3.4690689911
 30
0.0
 40
0.1093054926550702
100
AcDbArc
 50
152.529176798
 51
226.3601444307
  0
ARC
  5
129
330
1F
100
AcDbEntity
  8
0
  6
Continuous
 62
     7
370
    15
100
AcDbCircle
 10
25.1781100655
 20
-1.9788536608
 30
0.0
 40
19.27306551820295
100
AcDbArc
 50
150.9727886267
 51
163.424026644
  0
ARC
  5
12A
330
1F
100
AcDbEntity
  8
0
  6
Continuous
 62
     7
370
    15
100
AcDbCircle
 10
7.9625270187
 20
7.5167116737
 30
0.0
 40
0.3908328365829979
100
AcDbArc
 50
338.4129321256
 51
18.3879424702
  0
ARC
  5
12B
330
1F
100
AcDbEntity
  8
0
  6
Continuous
 62
     7
370
    15
100
AcDbCircle
 10
9.6542847643
 20
7.9432556946
 30
0.0
 40
1.355244597234566
100
AcDbArc
 50
171.3686842747
 51
192.9302555654
  0
ARC
  5
12C
330
1F
100
AcDbEntity
  8
0
  6
Continuous
 62
     7
370
    15
100
AcDbCircle
 10
8.4734742096
 20
8.13721221
 30
0.0
 40
0.1593646338296439
100
AcDbArc
 50
145.2954371503
 51
176.6066702949
  0
LINE
  5
12D
330
1F
100
AcDbEntity
  8
0
  6
Continuous
 62
     7
370
    15
100
AcDbLine
 10
8.3424607509
 20
8.2279456665
 30
0.0
 11
9.2665633242
 21
8.7614187268
 31
0.0
  0
LINE
  5
12E
330
1F
100
AcDbEntity
  8
0
  6
Continuous
 62
     7
370
    15
100
AcDbLine
 10
9.2665633242
 20
8.7614187268
 30
0.0
 11
9.2665633242
 21
8.7536481688
 31
0.0
  0
LINE
  5
12F
330
1F
100
AcDbEntity
  8
0
  6
Continuous
 62
     7
370
    15
100
AcDbLine
 10
9.0995302263
 20
8.6572220138
 30
0.0
 11
9.2665633242
 21
8.7536481688
 31
0.0
  0
LINE
  5
130
330
1F
100
AcDbEntity
  8
0
  6
Continuous
 62
     7
370
    15
100
AcDbLine
 10
9.0995302263
 20
8.4804119955
 30
0.0
 11
9.0995302263
 21
8.6572220138
 31
0.0
  0
LINE
  5
131
330
1F
100
AcDbEntity
  8
0
  6
Continuous
 62
     7
370
    15
100
AcDbLine
 10
9.5548136967
 20
8.7432415485
 30
0.0
 11
9.0995302263
 21
8.4804119955
 31
0.0
  0
LWPOLYLINE
  5
132
330
1F
100
AcDbEntity
  8
0
  6
Continuous
 62
     7
370
    15
100
AcDbPolyline
 90
       28
 70
   128
 43
0.0
 10
9.7021230426
 20
8.8282814238
 10
9.7158280273
 20
8.8194911555
 10
9.72673595
 20
8.8065330853
 10
9.7344975632
 20
8.7898221016
 10
9.7388643572
 20
8.7698932531
 10
9.7396965172
 20
8.7473846171
 10
9.7369673991
 20
8.7230168703
 10
9.7307643832
 20
8.6975702136
 10
9.7212860764
 20
8.6718593924
 10
9.7088359529
 20
8.6467076102
 10
9.6938126381
 20
8.622920171
 10
9.676697145
 20
8.6012586958
 10
9.6580374737
 20
8.5824167368
 10
9.6384310655
 20
8.5669975718
 10
9.6185056739
 20
8.555494888
 10
9.5988992656
 20
8.548276976
 10
9.5802395944
 20
8.5455749371
 10
9.5631241013
 20
8.5474752846
 10
9.5481007864
 20
8.5539171737
 10
9.5356506629
 20
8.5646943493
 10
9.5261723561
 20
8.5794617504
 10
9.5199693403
 20
8.5977465574
 10
9.5172402222
 20
8.6189633315
 10
9.5180723821
 20
8.6424327589
 10
9.5224391762
 20
8.6674034005
 10
9.5302007893
 20
8.693075752
 10
9.541108712
 20
8.7186278417
 10
9.5548136967
 20
8.7432415485
  0
LINE
  5
133
330
1F
100
AcDbEntity
  8
0
  6
Continuous
 62
     7
370
    15
100
AcDbLine
 10
10.3456741852
 20
9.1997955905
 30
0.0
 11
9.7021230426
 21
8.8282814238
 31
0.0
  0
LINE
  5
134
330
1F
100
AcDbEntity
  8
0
  6
Continuous
 62
     7
370
    15
100
AcDbLine
 10
10.263099178
 20
9.037099231
 30
0.0
 11
10.3456741852
 21
9.1997955905
 31
0.0
  0
SPLINE
  5
135
330
1F
100
AcDbEntity
  8
0
  6
Continuous
 62
     7
370
    15
100
AcDbSpline
210
0.0
220
0.0
230
1.0
 70
     8
 71
     3
 72
    42
 73
    38
 74
     0
 42
0.000000001
 43
0.00000001
 40
0.0
 40
0.0
 40
0.0
 40
0.0
 40
0.0312500000000022
 40
0.0312500000000022
 40
0.0625000000000045
 40
0.0625000000000045
 40
0.1250000000000089
 40
0.1250000000000089
 40
0.1562500000000109
 40
0.1562500000000109
 40
0.1875000000000129
 40
0.1875000000000129
 40
0.2500000000000198
 40
0.2500000000000198
 40
0.2812500000000209
 40
0.2812500000000209
 40
0.2968750000000199
 40
0.2968750000000199
 40
0.312500000000019
 40
0.312500000000019
 40
0.3437500000000171
 40
0.3437500000000171
 40
0.3750000000000152
 40
0.3750000000000152
 40
0.4375000000000123
 40
0.4375000000000123
 40
0.5000000000000094
 40
0.5000000000000094
 40
0.5625000000000066
 40
0.5625000000000066
 40
0.6250000000000037
 40
0.6250000000000037
 40
0.7500000000000026
 40
0.7500000000000026
 40
0.8750000000000012
 40
0.8750000000000012
 40
1.0
 40
1.0
 40
1.0
 40
1.0
 10
10.07071941104381
 20
8.633471911639106
 30
0.0
 10
10.07426875042627
 20
8.6361029940674
 30
0.0
 10
10.07781811450686
 20
8.638733820557436
 30
0.0
 10
10.0849370454878
 20
8.6437861185975
 30
0.0
 10
10.08850346625304
 20
8.646240192473613
 30
0.0
 10
10.09921089877025
 20
8.653517748881045
 30
0.0
 10
10.10638508933402
 20
8.658203294624677
 30
0.0
 10
10.11699427570281
 20
8.6660838152505
 30
0.0
 10
10.12049345655793
 20
8.668870115551377
 30
0.0
 10
10.12728494454806
 20
8.675329145175041
 30
0.0
 10
10.1306107634237
 20
8.678966872349202
 30
0.0
 10
10.13992327587525
 20
8.690442569295676
 30
0.0
 10
10.14543575885471
 20
8.699138274136647
 30
0.0
 10
10.15248228547931
 20
8.712519007393439
 30
0.0
 10
10.15471855517796
 20
8.71708398118276
 30
0.0
 10
10.15714249241804
 20
8.724100326967253
 30
0.0
 10
10.1577283736766
 20
8.726391847479908
 30
0.0
 10
10.1588429102267
 20
8.730962711077318
 30
0.0
 10
10.15934656814085
 20
8.73323673483283
 30
0.0
 10
10.16080641573238
 20
8.740047926684829
 30
0.0
 10
10.16171203169223
 20
8.744574584141807
 30
0.0
 10
10.16360625005888
 20
8.753644517544776
 30
0.0
 10
10.16458366826488
 20
8.75818290171594
 30
0.0
 10
10.16758567090568
 20
8.771805918612143
 30
0.0
 10
10.16968071692461
 20
8.78089849617691
 30
0.0
 10
10.17392858703987
 20
8.799090166027483
 30
0.0
 10
10.17604390244521
 20
8.80818502905075
 30
0.0
 10
10.18056355325304
 20
8.826407343316598
 30
0.0
 10
10.18298104363883
 20
8.835536277838832
 30
0.0
 10
10.18838785302764
 20
8.853858622963067
 30
0.0
 10
10.19136132634494
 20
8.863050246897409
 30
0.0
 10
10.20083350759011
 20
8.890687332105088
 30
0.0
 10
10.20785689282563
 20
8.909194559315202
 30
0.0
 10
10.22160882060342
 20
8.946164960795535
 30
0.0
 10
10.2286545669483
 20
8.964614542547107
 30
0.0
 10
10.24460409668971
 20
9.001123904876957
 30
0.0
 10
10.25340244095241
 20
9.01920580573429
 30
0.0
 10
10.26309917796008
 20
9.037099231046554
 30
0.0
  0
SPLINE
  5
136
330
1F
100
AcDbEntity
  8
0
  6
Continuous
 62
     7
370
    15
100
AcDbSpline
210
0.0
220
0.0
230
1.0
 70
     8
 71
     3
 72
    60
 73
    56
 74
     0
 42
0.000000001
 43
0.00000001
 40
0.0
 40
0.0
 40
0.0
 40
0.0
 40
0.0312499999999947
 40
0.0312499999999947
 40
0.0468749999999908
 40
0.0468749999999908
 40
0.0624999999999868
 40
0.0624999999999868
 40
0.0781249999999829
 40
0.0781249999999829
 40
0.085937499999982
 40
0.085937499999982
 40
0.0937499999999811
 40
0.0937499999999811
 40
0.1093749999999824
 40
0.1093749999999824
 40
0.1249999999999837
 40
0.1249999999999837
 40
0.187499999999986
 40
0.187499999999986
 40
0.2499999999999883
 40
0.2499999999999883
 40
0.3124999999999907
 40
0.3124999999999907
 40
0.374999999999993
 40
0.374999999999993
 40
0.4374999999999953
 40
0.4374999999999953
 40
0.4687499999999959
 40
0.4687499999999959
 40
0.4999999999999964
 40
0.4999999999999964
 40
0.531249999999997
 40
0.531249999999997
 40
0.5624999999999976
 40
0.5624999999999976
 40
0.5937499999999981
 40
0.5937499999999981
 40
0.6249999999999987
 40
0.6249999999999987
 40
0.6562499999999992
 40
0.6562499999999992
 40
0.6874999999999998
 40
0.6874999999999998
 40
0.7500000000000004
 40
0.7500000000000004
 40
0.8125000000000012
 40
0.8125000000000012
 40
0.875000000000002
 40
0.875000000000002
 40
0.9375000000000028
 40
0.9375000000000028
 40
0.9687500000000013
 40
0.9687500000000013
 40
1.0
 40
1.0
 40
1.0
 40
1.0
 10
9.840550971767433
 20
8.171357620040652
 30
0.0
 10
9.843700583699043
 20
8.176390816623652
 30
0.0
 10
9.84609880712362
 20
8.181617807721079
 30
0.0
 10
9.849387947845733
 20
8.189537782390229
 30
0.0
 10
9.850427099364307
 20
8.192192534103715
 30
0.0
 10
9.852417116870562
 20
8.19752480771075
 30
0.0
 10
9.853378104171481
 20
8.200192988862804
 30
0.0
 10
9.854639786089782
 20
8.20538489042804
 30
0.0
 10
9.855175273221239
 20
8.207961195860245
 30
0.0
 10
9.856011628855281
 20
8.211832478600808
 30
0.0
 10
9.856289815761878
 20
8.213122782914764
 30
0.0
 10
9.856816244482975
 20
8.215697222080582
 30
0.0
 10
9.857076319299026
 20
8.216983794836278
 30
0.0
 10
9.85741825837015
 20
8.220753214999814
 30
0.0
 10
9.857494944126303
 20
8.223213123618937
 30
0.0
 10
9.857689951647863
 20
8.228141035383306
 30
0.0
 10
9.857781538966021
 20
8.23060254248845
 30
0.0
 10
9.858338415840358
 20
8.242951028752751
 30
0.0
 10
9.859234962428994
 20
8.253016502387355
 30
0.0
 10
9.862066983250877
 20
8.273577455038442
 30
0.0
 10
9.86395359241935
 20
8.284058490704165
 30
0.0
 10
9.868072317583819
 20
8.305139739010821
 30
0.0
 10
9.870413921981504
 20
8.315702294619845
 30
0.0
 10
9.876112442002743
 20
8.33690630007649
 30
0.0
 10
9.87941130351584
 20
8.347543238859217
 30
0.0
 10
9.886795649928494
 20
8.368878240591929
 30
0.0
 10
9.890887583109908
 20
8.379576804602356
 30
0.0
 10
9.897004150540143
 20
8.395622992999286
 30
0.0
 10
9.899113846888127
 20
8.400996706298786
 30
0.0
 10
9.90360129224301
 20
8.411593999491503
 30
0.0
 10
9.905983698884777
 20
8.416822590315299
 30
0.0
 10
9.911038453829548
 20
8.427133308835934
 30
0.0
 10
9.913708156147415
 20
8.432216773143871
 30
0.0
 10
9.919083032890669
 20
8.442365783135225
 30
0.0
 10
9.921691506088983
 20
8.447480177142277
 30
0.0
 10
9.927036205835632
 20
8.45764443094946
 30
0.0
 10
9.929790206116799
 20
8.46268531240388
 30
0.0
 10
9.935543066005783
 20
8.47264338538664
 30
0.0
 10
9.93852796918092
 20
8.477567626963465
 30
0.0
 10
9.944610093554765
 20
8.487359373017403
 30
0.0
 10
9.947688039745808
 20
8.492236614204598
 30
0.0
 10
9.953862098258567
 20
8.50198192001465
 30
0.0
 10
9.956985949191733
 20
8.506835972564351
 30
0.0
 10
9.96660440116136
 20
8.521273409866795
 30
0.0
 10
9.973273383133593
 20
8.530662823231529
 30
0.0
 10
9.98697595108578
 20
8.548682752573688
 30
0.0
 10
9.994023230248262
 20
8.557371553384295
 30
0.0
 10
10.00845174499855
 20
8.574201923531259
 30
0.0
 10
10.01582644676422
 20
8.582354199393537
 30
0.0
 10
10.03097540652631
 20
8.598004025744926
 30
0.0
 10
10.03882643934889
 20
8.60544793553966
 30
0.0
 10
10.05077741661621
 20
8.615990496669216
 30
0.0
 10
10.05478402551882
 20
8.619417993366568
 30
0.0
 10
10.06278527158823
 20
8.62631820865022
 30
0.0
 10
10.06675870632759
 20
8.629871017027543
 30
0.0
 10
10.07071941104381
 20
8.633471911639106
 30
0.0
  0
LINE
  5
137
330
1F
100
AcDbEntity
  8
0
  6
Continuous
 62
     7
370
    15
100
AcDbLine
 10
9.0428450336
 20
7.7108517841
 30
0.0
 11
9.8405509718
 21
8.17135762
 31
0.0
  0
LINE
  5
138
330
1F
100
AcDbEntity
  8
0
  6
Continuous
 62
     7
370
    15
100
AcDbLine
 10
8.4592366842
 20
7.9255055585
 30
0.0
 11
8.6958669063
 21
8.062109278
 31
0.0
  0
LWPOLYLINE
  5
139
330
1F
100
AcDbEntity
  8
0
  6
Continuous
 62
     7
370
    15
100
AcDbPolyline
 90
       15
 70
   128
 43
0.0
 10
8.4592366842
 20
7.7486955402
 10
8.4422011855
 20
7.7410776542
 10
8.4260199177
 20
7.7382747572
 10
8.4115042774
 20
7.740427398
 10
8.3993821392
 20
7.7474276344
 10
8.3902613579
 20
7.7589244451
 10
8.3845992874
 20
7.7743413321
 10
8.3826798477
 20
7.7929052283
 10
8.3845992874
 20
7.8136852625
 10
8.3902613579
 20
7.8356394369
 10
8.3993821392
 20
7.8576668777
 10
8.4115042774
 20
7.8786630368
 10
8.4260199177
 20
7.8975750792
 10
8.4422011855
 20
7.9134546763
 10
8.4592366842
 20
7.9255055585
  0
LINE
  5
13A
330
1F
100
AcDbEntity
  8
0
  6
Continuous
 62
     7
370
    15
100
AcDbLine
 10
8.6958669063
 20
7.8852992597
 30
0.0
 11
8.4592366842
 21
7.7486955402
 31
0.0
  0
LWPOLYLINE
  5
13B
330
1F
100
AcDbEntity
  8
0
  6
Continuous
 62
     7
370
    15
100
AcDbPolyline
 90
       15
 70
   128
 43
0.0
 10
8.6958669063
 20
8.062109278
 10
8.7129024051
 20
8.069727164
 10
8.7290836728
 20
8.072530061
 10
8.7435993131
 20
8.0703774202
 10
8.7557214513
 20
8.0633771838
 10
8.7648422326
 20
8.0518803731
 10
8.7705043031
 20
8.0364634861
 10
8.7724237428
 20
8.0178995899
 10
8.7705043031
 20
7.9971195557
 10
8.7648422326
 20
7.9751653813
 10
8.7557214513
 20
7.9531379406
 10
8.7435993131
 20
7.9321417814
 10
8.7290836728
 20
7.913229739
 10
8.7129024051
 20
7.897350142
 10
8.6958669063
 20
7.8852992597
  0
SPLINE
  5
13C
330
1F
100
AcDbEntity
  8
0
  6
Continuous
 62
     7
370
    15
100
AcDbSpline
210
0.0
220
0.0
230
1.0
 70
     8
 71
     3
 72
    22
 73
    18
 74
     0
 42
0.000000001
 43
0.00000001
 40
0.0
 40
0.0
 40
0.0
 40
0.0
 40
0.1249999999999998
 40
0.1249999999999998
 40
0.2499999999999996
 40
0.2499999999999996
 40
0.3749999999999993
 40
0.3749999999999993
 40
0.4999999999999991
 40
0.4999999999999991
 40
0.6249999999999989
 40
0.6249999999999989
 40
0.7499999999999992
 40
0.7499999999999992
 40
0.8749999999999996
 40
0.8749999999999996
 40
1.0
 40
1.0
 40
1.0
 40
1.0
 10
6.572490767991499
 20
3.554661512172571
 30
0.0
 10
6.577086694436795
 20
3.552008340310053
 30
0.0
 10
6.582020083233037
 20
3.549433157656473
 30
0.0
 10
6.592534103762671
 20
3.544432173596277
 30
0.0
 10
6.598180392836727
 20
3.541981413531452
 30
0.0
 10
6.609812726368654
 20
3.53737697267061
 30
0.0
 10
6.615771252385585
 20
3.535228528582064
 30
0.0
 10
6.627970109704978
 20
3.531235349950704
 30
0.0
 10
6.634249447912465
 20
3.529384367087914
 30
0.0
 10
6.646562233580341
 20
3.526148623842362
 30
0.0
 10
6.652658295411723
 20
3.524740968358639
 30
0.0
 10
6.664726391087409
 20
3.522354296182683
 30
0.0
 10
6.670606306307141
 20
3.521397033478927
 30
0.0
 10
6.6817614258557
 20
3.519989213743719
 30
0.0
 10
6.687113139097874
 20
3.519527668442363
 30
0.0
 10
6.69716049512168
 20
3.519121300783242
 30
0.0
 10
6.701834424282513
 20
3.519180651793128
 30
0.0
 10
6.705988977990016
 20
3.51949127162151
 30
0.0
  0
ARC
  5
13D
330
1F
100
AcDbEntity
  8
0
  6
Continuous
 62
     7
370
    15
100
AcDbCircle
 10
25.2136085819
 20
-1.9979128052
 30
0.0
 40
19.45051040209436
100
AcDbArc
 50
151.0257476268
 51
163.4129411425
  0
SPLINE
  5
13E
330
1F
100
AcDbEntity
  8
0
  6
Continuous
 62
     7
370
    15
100
AcDbSpline
210
0.0
220
0.0
230
1.0
 70
     8
 71
     3
 72
    20
 73
    16
 74
     0
 42
0.000000001
 43
0.00000001
 40
0.0
 40
0.0
 40
0.0
 40
0.0
 40
0.1250000000000015
 40
0.1250000000000015
 40
0.2500000000000029
 40
0.2500000000000029
 40
0.3750000000000044
 40
0.3750000000000044
 40
0.5000000000000059
 40
0.5000000000000059
 40
0.7500000000000037
 40
0.7500000000000037
 40
0.8750000000000019
 40
0.8750000000000019
 40
1.0
 40
1.0
 40
1.0
 40
1.0
 10
8.197573018951138
 20
7.424236027328609
 30
0.0
 10
8.202199860924704
 20
7.421565008311508
 30
0.0
 10
8.207137310608669
 20
7.418874306963617
 30
0.0
 10
8.217605926179827
 20
7.413453261774097
 30
0.0
 10
8.223204186768877
 20
7.410692088664897
 30
0.0
 10
8.234653121738596
 20
7.405298885355282
 30
0.0
 10
8.240489960114079
 20
7.402669784867472
 30
0.0
 10
8.252382443988045
 20
7.397537338890062
 30
0.0
 10
8.258455644993607
 20
7.395029744337385
 30
0.0
 10
8.276220122467933
 20
7.388007810101392
 30
0.0
 10
8.287919922285948
 20
7.383810868374123
 30
0.0
 10
8.303617785088651
 20
7.378778082107311
 30
0.0
 10
8.308620114572106
 20
7.377284075303177
 30
0.0
 10
8.317891904728963
 20
7.374748390787716
 30
0.0
 10
8.322175650454904
 20
7.373703643082106
 30
0.0
 10
8.32594666459577
 20
7.372918533635241
 30
0.0
  0
ARC
  5
13F
330
1F
100
AcDbEntity
  8
0
  6
Continuous
 62
     7
370
    15
100
AcDbCircle
 10
24.9167895833
 20
-1.8294623984
 30
0.0
 40
19.43063737175438
100
AcDbArc
 50
151.0193881872
 51
163.4193005821
  0
LINE
  5
140
330
1F
100
AcDbEntity
  8
0
  6
Continuous
 62
     7
370
    15
100
AcDbLine
 10
8.197573019
 20
7.4242360273
 30
0.0
 11
7.9191845224
 21
7.5849462856
 31
0.0
  0
LINE
  5
141
330
1F
100
AcDbEntity
  8
0
  6
Continuous
 62
     7
370
    15
100
AcDbLine
 10
6.572490768
 20
3.5546615122
 30
0.0
 11
6.2941022715
 21
3.7153717704
 31
0.0
  0
SPLINE
  5
142
330
1F
100
AcDbEntity
  8
0
  6
Continuous
 62
     7
370
    15
100
AcDbSpline
210
0.0
220
0.0
230
1.0
 70
     8
 71
     3
 72
    10
 73
     6
 74
     0
 42
0.000000001
 43
0.00000001
 40
0.0
 40
0.0
 40
0.0
 40
0.0
 40
0.3677576536648731
 40
0.7355145719341657
 40
0.9999999999999999
 40
0.9999999999999999
 40
0.9999999999999999
 40
0.9999999999999999
 10
6.294102271461361
 20
3.715371770405388
 30
0.0
 10
6.287056122440517
 20
3.719924766321493
 30
0.0
 10
6.272963838488832
 20
3.729030749049194
 30
0.0
 10
6.263095087952663
 20
3.741034334169555
 30
0.0
 10
6.264431987778292
 20
3.746625570142377
 30
0.0
 10
6.264991251998275
 20
3.748964547353032
 30
0.0
  0
SPLINE
  5
143
330
1F
100
AcDbEntity
  8
0
  6
Continuous
 62
     7
370
    15
100
AcDbSpline
210
0.0
220
0.0
230
1.0
 70
     8
 71
     3
 72
    10
 73
     6
 74
     0
 42
0.000000001
 43
0.00000001
 40
0.0
 40
0.0
 40
0.0
 40
0.0
 40
0.360483355890333
 40
0.720870304556841
 40
1.0
 40
1.0
 40
1.0
 40
1.0
 10
7.919184522421
 20
7.584946285561426
 30
0.0
 10
7.912149689768074
 20
7.589279669073899
 30
0.0
 10
7.898081905849184
 20
7.59794527718411
 30
0.0
 10
7.887417511282385
 20
7.607717858683161
 30
0.0
 10
7.887838731215249
 20
7.6109952008959
 30
0.0
 10
7.888022580990947
 20
7.612425661763697
 30
0.0
  0
SPLINE
  5
144
330
1F
100
AcDbEntity
  8
0
  6
Continuous
 62
     7
370
    15
100
AcDbSpline
210
0.0
220
0.0
230
1.0
 70
     8
 71
     3
 72
    34
 73
    30
 74
     0
 42
0.000000001
 43
0.00000001
 40
0.0
 40
0.0
 40
0.0
 40
0.0
 40
0.0625000000000004
 40
0.0625000000000004
 40
0.1250000000000009
 40
0.1250000000000009
 40
0.1875000000000013
 40
0.1875000000000013
 40
0.2500000000000018
 40
0.2500000000000018
 40
0.3750000000000022
 40
0.3750000000000022
 40
0.4375000000000023
 40
0.4375000000000023
 40
0.5000000000000024
 40
0.5000000000000024
 40
0.5625000000000026
 40
0.5625000000000026
 40
0.6250000000000027
 40
0.6250000000000027
 40
0.6875000000000028
 40
0.6875000000000028
 40
0.7500000000000029
 40
0.7500000000000029
 40
0.8750000000000019
 40
0.8750000000000019
 40
0.937500000000001
 40
0.937500000000001
 40
1.0
 40
1.0
 40
1.0
 40
1.0
 10
7.90060173733729
 20
8.45424267691464
 30
0.0
 10
7.908400913640074
 20
8.457373760815534
 30
0.0
 10
7.916895335566182
 20
8.460214058611603
 30
0.0
 10
7.934766723061371
 20
8.46514124516608
 30
0.0
 10
7.944173449183029
 20
8.4672421565956
 30
0.0
 10
7.963761147580309
 20
8.470660007649176
 30
0.0
 10
7.973943396171741
 20
8.47197761840362
 30
0.0
 10
7.994952023736075
 20
8.47374859731857
 30
0.0
 10
8.005785580454294
 20
8.47419833130336
 30
0.0
 10
8.038549038744353
 20
8.474089886054093
 30
0.0
 10
8.060944396847795
 20
8.472157110943954
 30
0.0
 10
8.094088368030578
 20
8.465297273517935
 30
0.0
 10
8.105091090819188
 20
8.462311983754494
 30
0.0
 10
8.126126898785555
 20
8.454758638390016
 30
0.0
 10
8.136191673830615
 20
8.450178850542816
 30
0.0
 10
8.155172543423287
 20
8.439221440969916
 30
0.0
 10
8.16405844209911
 20
8.432838983935726
 30
0.0
 10
8.18041988855226
 20
8.418797958532053
 30
0.0
 10
8.187986345918759
 20
8.411106426958442
 30
0.0
 10
8.202399384530656
 20
8.394616249991216
 30
0.0
 10
8.209270764174951
 20
8.385783743709553
 30
0.0
 10
8.222494267462022
 20
8.367439412541202
 30
0.0
 10
8.228866068247472
 20
8.357906997956922
 30
0.0
 10
8.247688452853419
 20
8.328381470476328
 30
0.0
 10
8.259847395375733
 20
8.307470841533803
 30
0.0
 10
8.27864194176432
 20
8.274497196413352
 30
0.0
 10
8.285027634406513
 20
8.263178285712382
 30
0.0
 10
8.297984627567464
 20
8.240370483783682
 30
0.0
 10
8.304559248579242
 20
8.22887275954663
 30
0.0
 10
8.311343608795942
 20
8.217325652845245
 30
0.0
  0
SPLINE
  5
145
330
1F
100
AcDbEntity
  8
0
  6
Continuous
 62
     7
370
    15
100
AcDbSpline
210
0.0
220
0.0
230
1.0
 70
     8
 71
     3
 72
    16
 73
    12
 74
     0
 42
0.000000001
 43
0.00000001
 40
0.0
 40
0.0
 40
0.0
 40
0.0
 40
0.25
 40
0.25
 40
0.5
 40
0.5
 40
0.75
 40
0.75
 40
0.875
 40
0.875
 40
1.0
 40
1.0
 40
1.0
 40
1.0
 10
8.311343608795942
 20
8.217325652845245
 30
0.0
 10
8.30127194412444
 20
8.216502052484975
 30
0.0
 10
8.290508185665864
 20
8.215492302521284
 30
0.0
 10
8.26765211754285
 20
8.213126632057017
 30
0.0
 10
8.256121690877357
 20
8.211828459195159
 30
0.0
 10
8.233022590502056
 20
8.20906160810274
 30
0.0
 10
8.22195435708216
 20
8.207652543629779
 30
0.0
 10
8.206204291961233
 20
8.205561196962641
 30
0.0
 10
8.201152856548314
 20
8.20487504209703
 30
0.0
 10
8.191613585638411
 20
8.203556755526414
 30
0.0
 10
8.187041082393991
 20
8.202912038553446
 30
0.0
 10
8.182844078648486
 20
8.202314263662558
 30
0.0
  0
SPLINE
  5
146
330
1F
100
AcDbEntity
  8
0
  6
Continuous
 62
     7
370
    15
100
AcDbSpline
210
0.0
220
0.0
230
1.0
 70
     8
 71
     3
 72
    36
 73
    32
 74
     0
 42
0.000000001
 43
0.00000001
 40
0.0
 40
0.0
 40
0.0
 40
0.0
 40
0.1249999999999986
 40
0.1249999999999986
 40
0.1874999999999983
 40
0.1874999999999983
 40
0.2499999999999981
 40
0.2499999999999981
 40
0.3124999999999978
 40
0.3124999999999978
 40
0.3749999999999975
 40
0.3749999999999975
 40
0.4374999999999973
 40
0.4374999999999973
 40
0.4687499999999971
 40
0.4687499999999971
 40
0.499999999999997
 40
0.499999999999997
 40
0.5312499999999969
 40
0.5312499999999969
 40
0.5624999999999968
 40
0.5624999999999968
 40
0.6249999999999969
 40
0.6249999999999969
 40
0.6874999999999971
 40
0.6874999999999971
 40
0.7499999999999972
 40
0.7499999999999972
 40
0.8749999999999987
 40
0.8749999999999987
 40
1.0
 40
1.0
 40
1.0
 40
1.0
 10
8.182844078648486
 20
8.20231426366256
 30
0.0
 10
8.177759917438078
 20
8.223281419921337
 30
0.0
 10
8.173526504702748
 20
8.244029749611835
 30
0.0
 10
8.167709616089422
 20
8.274373834617437
 30
0.0
 10
8.165856412761364
 20
8.284377937827761
 30
0.0
 10
8.16215780593911
 20
8.304136804774194
 30
0.0
 10
8.160308107248886
 20
8.313921810427157
 30
0.0
 10
8.156435283671176
 20
8.332923892892584
 30
0.0
 10
8.154412032407205
 20
8.342169010926085
 30
0.0
 10
8.149801713478357
 20
8.360078790687748
 30
0.0
 10
8.147218808294394
 20
8.368747115960927
 30
0.0
 10
8.140865555413754
 20
8.385057186407483
 30
0.0
 10
8.137045786954037
 20
8.39281648692834
 30
0.0
 10
8.129605269133544
 20
8.40306414749162
 30
0.0
 10
8.126843315172145
 20
8.40624082380809
 30
0.0
 10
8.120584675136866
 20
8.412021780042753
 30
0.0
 10
8.117061166494267
 20
8.414626485948897
 30
0.0
 10
8.10949235473872
 20
8.418989389151772
 30
0.0
 10
8.105418588556189
 20
8.420781205244623
 30
0.0
 10
8.096743939014905
 20
8.423634870110961
 30
0.0
 10
8.09212383980958
 20
8.42469543351795
 30
0.0
 10
8.078026406284513
 20
8.42685289502828
 30
0.0
 10
8.068146887891706
 20
8.426991449167561
 30
0.0
 10
8.048550064618986
 20
8.425637386342602
 30
0.0
 10
8.038766949026687
 20
8.42414994732161
 30
0.0
 10
8.019407342982031
 20
8.42004695114732
 30
0.0
 10
8.009884272899226
 20
8.417434055582335
 30
0.0
 10
7.982082414644158
 20
8.408359184281945
 30
0.0
 10
7.96436375215894
 20
8.400587343270306
 30
0.0
 10
7.932045946969472
 20
8.383055999905901
 30
0.0
 10
7.917368884228853
 20
8.373277860261352
 30
0.0
 10
7.904385311250106
 20
8.362744524921066
 30
0.0
  0
SPLINE
  5
147
330
1F
100
AcDbEntity
  8
0
  6
Continuous
 62
     7
370
    15
100
AcDbSpline
210
0.0
220
0.0
230
1.0
 70
     8
 71
     3
 72
    16
 73
    12
 74
     0
 42
0.000000001
 43
0.00000001
 40
0.0
 40
0.0
 40
0.0
 40
0.0
 40
0.2499999999999994
 40
0.2499999999999994
 40
0.4999999999999988
 40
0.4999999999999988
 40
0.7499999999999982
 40
0.7499999999999982
 40
0.8749999999999991
 40
0.8749999999999991
 40
1.0
 40
1.0
 40
1.0
 40
1.0
 10
7.90060173733729
 20
8.45424267691464
 30
0.0
 10
7.895220635549142
 20
8.450695059331512
 30
0.0
 10
7.89125295113148
 20
8.445745675850603
 30
0.0
 10
7.886035808611799
 20
8.433163778299413
 30
0.0
 10
7.88492558245437
 20
8.425837792502294
 30
0.0
 10
7.885652729955839
 20
8.409289539075083
 30
0.0
 10
7.887477551506841
 20
8.400431031231378
 30
0.0
 10
7.89235003745371
 20
8.386423983895934
 30
0.0
 10
7.894321270997951
 20
8.38168342755275
 30
0.0
 10
7.898877190146039
 20
8.37222747233418
 30
0.0
 10
7.901508341521199
 20
8.367424728340042
 30
0.0
 10
7.904385311250102
 20
8.362744524921087
 30
0.0
  0
SPLINE
  5
148
330
1F
100
AcDbEntity
  8
0
  6
Continuous
 62
     7
370
    15
100
AcDbSpline
210
0.0
220
0.0
230
1.0
 70
     8
 71
     3
 72
     8
 73
     4
 74
     0
 42
0.000000001
 43
0.00000001
 40
0.0
 40
0.0
 40
0.0
 40
0.0
 40
1.0
 40
1.0
 40
1.0
 40
1.0
 10
7.924705548458634
 20
8.468751751469616
 30
0.0
 10
7.915290815576681
 20
8.463316741864299
 30
0.0
 10
7.906760346652098
 20
8.458302884573408
 30
0.0
 10
7.90060173733729
 20
8.45424267691464
 30
0.0
  0
LWPOLYLINE
  5
149
330
1F
100
AcDbEntity
  8
0
  6
Continuous
 62
     7
370
    15
100
AcDbPolyline
 90
       14
 70
   128
 43
0.0
 10
8.8489805794
 20
9.0023243694
 10
8.8766911659
 20
9.0109708907
 10
8.9065646872
 20
9.0147304319
 10
8.9382444748
 20
9.0135581066
 10
8.9713522947
 20
9.0074679116
 10
9.0054928631
 20
8.9965325594
 10
9.0402585661
 20
8.9808826105
 10
9.0752343261
 20
8.9607049139
 10
9.1100025574
 20
8.9362403769
 10
9.1441481523
 20
8.9077810887
 10
9.1772634367
 20
8.8756668328
 10
9.2089530378
 20
8.8402810304
 10
9.2388386044
 20
8.8020461627
 10
9.2665633242
 20
8.7614187268
  0
SPLINE
  5
14A
330
1F
100
AcDbEntity
  8
0
  6
Continuous
 62
     7
370
    15
100
AcDbSpline
210
0.0
220
0.0
230
1.0
 70
     8
 71
     3
 72
     8
 73
     4
 74
     0
 42
0.000000001
 43
0.00000001
 40
0.0
 40
0.0
 40
0.0
 40
0.0
 40
1.0
 40
1.0
 40
1.0
 40
1.0
 10
8.311343608795942
 20
8.217325652845245
 30
0.0
 10
8.32295077711511
 20
8.218274817488945
 30
0.0
 10
8.332990426481908
 20
8.22247856464654
 30
0.0
 10
8.342460750867794
 20
8.227945666543976
 30
0.0
  0
SPLINE
  5
14B
330
1F
100
AcDbEntity
  8
0
  6
Continuous
 62
     7
370
    15
100
AcDbSpline
210
0.0
220
0.0
230
1.0
 70
    11
 71
     3
 72
    62
 73
    58
 74
     0
 42
0.000000001
 43
0.00000001
 40
0.0
 40
0.0
 40
0.0
 40
0.0
 40
0.03125
 40
0.03125
 40
0.0625000000000001
 40
0.0625000000000001
 40
0.0937500000000001
 40
0.0937500000000001
 40
0.1250000000000001
 40
0.1250000000000001
 40
0.1875000000000002
 40
0.1875000000000002
 40
0.2187500000000002
 40
0.2187500000000002
 40
0.2500000000000002
 40
0.2500000000000002
 40
0.2812500000000002
 40
0.2812500000000002
 40
0.3125000000000003
 40
0.3125000000000003
 40
0.3437500000000003
 40
0.3437500000000003
 40
0.3750000000000003
 40
0.3750000000000003
 40
0.4062500000000003
 40
0.4062500000000003
 40
0.4375000000000004
 40
0.4375000000000004
 40
0.4687500000000004
 40
0.4687500000000004
 40
0.5000000000000004
 40
0.5000000000000004
 40
0.5625000000000004
 40
0.5625000000000004
 40
0.5937500000000007
 40
0.5937500000000007
 40
0.6250000000000008
 40
0.6250000000000008
 40
0.6562500000000009
 40
0.6562500000000009
 40
0.6875000000000011
 40
0.6875000000000011
 40
0.7500000000000011
 40
0.7500000000000011
 40
0.781250000000001
 40
0.781250000000001
 40
0.8125000000000012
 40
0.8125000000000012
 40
0.8437500000000013
 40
0.8437500000000013
 40
0.8750000000000014
 40
0.8750000000000014
 40
0.9375000000000007
 40
0.9375000000000007
 40
0.9687500000000004
 40
0.9687500000000004
 40
1.0
 40
1.0
 40
1.0
 40
1.0
 10
8.436467491076666
 20
8.528370707808604
 30
0.0
 10
8.432086800392668
 20
8.525841788906282
 30
0.0
 10
8.4273506876679
 20
8.523711322594423
 30
0.0
 10
8.417198208464347
 20
8.520200168397649
 30
0.0
 10
8.411715883774328
 20
8.518810836822821
 30
0.0
 10
8.400392611204184
 20
8.516854726401858
 30
0.0
 10
8.394568392902352
 20
8.516278090850994
 30
0.0
 10
8.382592977856232
 20
8.51586810334955
 30
0.0
 10
8.37641958286
 20
8.516045237584413
 30
0.0
 10
8.358176642068615
 20
8.517598923599092
 30
0.0
 10
8.345896430714934
 20
8.520037635628666
 30
0.0
 10
8.329017864401568
 20
8.525154453336713
 30
0.0
 10
8.323562385660187
 20
8.527124950130027
 30
0.0
 10
8.3133191743137
 20
8.531468070778612
 30
0.0
 10
8.308598671011186
 20
8.533805592404585
 30
0.0
 10
8.299943731136276
 20
8.538794892458986
 30
0.0
 10
8.295981460008814
 20
8.54147594772738
 30
0.0
 10
8.28918489386313
 20
8.546954607525981
 30
0.0
 10
8.286309476231649
 20
8.549768423149605
 30
0.0
 10
8.281612457692672
 20
8.55557932242815
 30
0.0
 10
8.27982404074359
 20
8.558552355912141
 30
0.0
 10
8.2774538141952
 20
8.564482979044584
 30
0.0
 10
8.27684729832095
 20
8.567484350987609
 30
0.0
 10
8.276845276497358
 20
8.573527332277674
 30
0.0
 10
8.277443503405175
 20
8.576503451214153
 30
0.0
 10
8.279804787467967
 20
8.582429131434594
 30
0.0
 10
8.281599377575338
 20
8.58541124659292
 30
0.0
 10
8.286271718247002
 20
8.591192388082899
 30
0.0
 10
8.289136916453172
 20
8.593999263145415
 30
0.0
 10
8.295932800756374
 20
8.599480751056873
 30
0.0
 10
8.299886521081412
 20
8.60215813046641
 30
0.0
 10
8.312844473920906
 20
8.609643439095636
 30
0.0
 10
8.323305614968369
 20
8.614115061395438
 30
0.0
 10
8.340194130362498
 20
8.619265779776137
 30
0.0
 10
8.346118812548925
 20
8.62075305959002
 30
0.0
 10
8.358124162574109
 20
8.623100212839114
 30
0.0
 10
8.364171438281689
 20
8.62396126496754
 30
0.0
 10
8.376361285529198
 20
8.625008538813386
 30
0.0
 10
8.382539747558422
 20
8.625186332959519
 30
0.0
 10
8.39448308614511
 20
8.624778894271635
 30
0.0
 10
8.400310520522519
 20
8.624203575342085
 30
0.0
 10
8.417355287920586
 20
8.621256534046859
 30
0.0
 10
8.427684758115017
 20
8.617718779301411
 30
0.0
 10
8.440789603954949
 20
8.610170044973767
 30
0.0
 10
8.444665358630898
 20
8.607340768835405
 30
0.0
 10
8.451461691602898
 20
8.601085755042734
 30
0.0
 10
8.454401090955944
 20
8.597618471730492
 30
0.0
 10
8.45907918928151
 20
8.590367574992937
 30
0.0
 10
8.460848395865316
 20
8.58657173729198
 30
0.0
 10
8.463244214842854
 20
8.57868318773477
 30
0.0
 10
8.46384983252764
 20
8.574609546481495
 30
0.0
 10
8.463862745046109
 20
8.562534975007
 30
0.0
 10
8.461440512992676
 20
8.554398837028394
 30
0.0
 10
8.454477974885107
 20
8.543534934643914
 30
0.0
 10
8.451565406482377
 20
8.540068206844742
 30
0.0
 10
8.444739955382921
 20
8.533750075653934
 30
0.0
 10
8.440848181760666
 20
8.530899626710925
 30
0.0
 10
8.436467491076666
 20
8.528370707808604
 30
0.0
  0
LINE
  5
14C
330
1F
100
AcDbEntity
  8
0
  6
Continuous
 62
     7
370
    15
100
AcDbLine
 10
7.9247055485
 20
8.4687517515
 30
0.0
 11
8.8489805794
 21
9.0023243694
 31
0.0
  0
SPLINE
  5
14D
330
1F
100
AcDbEntity
  8
0
  6
Continuous
 62
     7
370
    15
100
AcDbSpline
210
0.0
220
0.0
230
1.0
 70
     8
 71
     3
 72
    22
 73
    18
 74
     0
 42
0.000000001
 43
0.00000001
 40
0.0
 40
0.0
 40
0.0
 40
0.0
 40
0.125
 40
0.125
 40
0.25
 40
0.25
 40
0.375
 40
0.375
 40
0.5
 40
0.5
 40
0.625
 40
0.625
 40
0.75
 40
0.75
 40
0.875
 40
0.875
 40
1.0
 40
1.0
 40
1.0
 40
1.0
 10
8.175478275579664
 20
8.155369679360135
 30
0.0
 10
8.180077584151954
 20
8.152714555037262
 30
0.0
 10
8.185048938195205
 20
8.150303864480389
 30
0.0
 10
8.195705299238139
 20
8.145951937101719
 30
0.0
 10
8.201457922057473
 20
8.14399359605222
 30
0.0
 10
8.213362887655506
 20
8.140679753145443
 30
0.0
 10
8.21948750295979
 20
8.139322559930491
 30
0.0
 10
8.232078161233805
 20
8.13720532666349
 30
0.0
 10
8.238583710346838
 20
8.136449411913468
 30
0.0
 10
8.251389847183992
 20
8.135616102990138
 30
0.0
 10
8.257755456917106
 20
8.135523838423461
 30
0.0
 10
8.270410512077126
 20
8.136009120848
 30
0.0
 10
8.276599256881385
 20
8.136588507462287
 30
0.0
 10
8.288400328693964
 20
8.13837898371764
 30
0.0
 10
8.29409340402927
 20
8.13960062174627
 30
0.0
 10
8.30483835461727
 20
8.142681878023945
 30
0.0
 10
8.309876039824749
 20
8.144544584703615
 30
0.0
 10
8.314388985734817
 20
8.146645028064277
 30
0.0
  0
ARC
  5
14E
330
1F
100
AcDbEntity
  8
0
  6
Continuous
 62
     7
370
    15
100
AcDbCircle
 10
8.4248407023
 20
8.1402938189
 30
0.0
 40
0.2498177364504097
100
AcDbArc
 50
165.6252639894
 51
176.5402443366
  0
ARC
  5
14F
330
1F
100
AcDbEntity
  8
0
  6
Continuous
 62
     7
370
    15
100
AcDbCircle
 10
8.1462420513
 20
8.3010301061
 30
0.0
 40
0.2496063945684721
100
AcDbArc
 50
165.6853397601
 51
176.543297114
  0
LINE
  5
150
330
1F
100
AcDbEntity
  8
0
  6
Continuous
 62
     7
370
    15
100
AcDbLine
 10
8.1754782756
 20
8.1553696794
 30
0.0
 11
7.897089779
 21
8.3160799376
 31
0.0
  0
SPLINE
  5
151
330
1F
100
AcDbEntity
  8
0
  6
Continuous
 62
     7
370
    15
100
AcDbSpline
210
0.0
220
0.0
230
1.0
 70
     8
 71
     3
 72
    22
 73
    18
 74
     0
 42
0.000000001
 43
0.00000001
 40
0.0
 40
0.0
 40
0.0
 40
0.0
 40
0.125
 40
0.125
 40
0.25
 40
0.25
 40
0.375
 40
0.375
 40
0.5
 40
0.5
 40
0.625
 40
0.625
 40
0.75
 40
0.75
 40
0.875
 40
0.875
 40
1.0
 40
1.0
 40
1.0
 40
1.0
 10
8.197573018951136
 20
7.616677707339066
 30
0.0
 10
8.202173576776001
 20
7.614021861838031
 30
0.0
 10
8.207126061523331
 20
7.611825337004069
 30
0.0
 10
8.217706092465562
 20
7.608312443651717
 30
0.0
 10
8.223400489753265
 20
7.606989201911039
 30
0.0
 10
8.235150611062888
 20
7.605329209374784
 30
0.0
 10
8.241180258367763
 20
7.604982365369055
 30
0.0
 10
8.253546642431036
 20
7.605243277858437
 30
0.0
 10
8.25992044070927
 20
7.605867310848876
 30
0.0
 10
8.27243939000188
 20
7.608033274206293
 30
0.0
 10
8.27864898830665
 20
7.609571080928966
 30
0.0
 10
8.290966947027075
 20
7.613575300773876
 30
0.0
 10
8.296974281190591
 20
7.616016717354873
 30
0.0
 10
8.308405119526912
 20
7.621632366345826
 30
0.0
 10
8.31390623281924
 20
7.624842714259553
 30
0.0
 10
8.324255381531481
 20
7.631973427989566
 30
0.0
 10
8.329090850107127
 20
7.635893463332176
 30
0.0
 10
8.333404875255429
 20
7.639999635992569
 30
0.0
  0
ARC
  5
152
330
1F
100
AcDbEntity
  8
0
  6
Continuous
 62
     7
370
    15
100
AcDbCircle
 10
9.5930318709
 20
7.9437123089
 30
0.0
 40
1.433267957545535
100
AcDbArc
 50
171.5078058467
 51
193.1895961649
  0
ARC
  5
153
330
1F
100
AcDbEntity
  8
0
  6
Continuous
 62
     7
370
    15
100
AcDbCircle
 10
9.3146433744
 20
8.1044225671
 30
0.0
 40
1.433267957545512
100
AcDbArc
 50
171.5078058467
 51
193.1895961649
  0
LINE
  5
154
330
1F
100
AcDbEntity
  8
0
  6
Continuous
 62
     7
370
    15
100
AcDbLine
 10
8.197573019
 20
7.6166777073
 30
0.0
 11
7.9191845224
 21
7.7773879656
 31
0.0
  0
SPLINE
  5
155
330
1F
100
AcDbEntity
  8
0
  6
Continuous
 62
     7
370
    15
100
AcDbSpline
210
0.0
220
0.0
230
1.0
 70
     8
 71
     3
 72
    10
 73
     6
 74
     0
 42
0.000000001
 43
0.00000001
 40
0.0
 40
0.0
 40
0.0
 40
0.0
 40
0.4146872393798294
 40
0.829368649846598
 40
1.0
 40
1.0
 40
1.0
 40
1.0
 10
7.897089779049526
 20
8.316079937592953
 30
0.0
 10
7.890162484995582
 20
8.320921946349518
 30
0.0
 10
7.876307994258894
 20
8.330605895802565
 30
0.0
 10
7.867615631808555
 20
8.344680654538706
 30
0.0
 10
7.869102046285525
 20
8.35253188198449
 30
0.0
 10
7.869535368307796
 20
8.354820684876838
 30
0.0
  0
SPLINE
  5
156
330
1F
100
AcDbEntity
  8
0
  6
Continuous
 62
     7
370
    15
100
AcDbSpline
210
0.0
220
0.0
230
1.0
 70
     8
 71
     3
 72
     9
 73
     5
 74
     0
 42
0.000000001
 43
0.00000001
 40
0.0
 40
0.0
 40
0.0
 40
0.0
 40
0.5403617172130815
 40
1.0
 40
1.0
 40
1.0
 40
1.0
 10
7.919184522420999
 20
7.777387965571883
 30
0.0
 10
7.911892934927844
 20
7.782535522633226
 30
0.0
 10
7.898399033970606
 20
7.79206165466177
 30
0.0
 10
7.893787339498196
 20
7.806448387724691
 30
0.0
 10
7.891667628170159
 20
7.813061081004645
 30
0.0
  0
ARC
  5
157
330
1F
100
AcDbEntity
  8
0
  6
Continuous
 62
     7
370
    15
100
AcDbCircle
 10
8.3987951054
 20
7.7459451129
 30
0.0
 40
0.0605041262823634
100
AcDbArc
 50
2.6054784857
 51
57.39452166
  0
ARC
  5
158
330
1F
100
AcDbEntity
  8
0
  6
Continuous
 62
     7
370
    15
100
AcDbCircle
 10
7.9319749928
 20
7.5204568673
 30
0.0
 40
0.282490285720188
100
AcDbArc
 50
340.0855636518
 51
19.9144363482
  0
ARC
  5
159
330
1F
100
AcDbEntity
  8
0
  6
Continuous
 62
     7
370
    15
100
AcDbCircle
 10
7.6535864963
 20
7.6811671256
 30
0.0
 40
0.2824902857202237
100
AcDbArc
 50
340.0855636518
 51
19.9144363482
  0
LINE
  5
15A
330
1F
100
AcDbEntity
  8
0
  6
Continuous
 62
     7
370
    15
100
AcDbLine
 10
8.4313978346
 20
7.7969138421
 30
0.0
 11
8.6680280566
 21
7.9335175616
 31
0.0
  0
ARC
  5
15B
330
1F
100
AcDbEntity
  8
0
  6
Continuous
 62
     7
370
    15
100
AcDbCircle
 10
8.6354253275
 20
7.8825488324
 30
0.0
 40
0.0605041262823634
100
AcDbArc
 50
2.6054784857
 51
57.39452166
  0
ARC
  5
15C
330
1F
100
AcDbEntity
  8
0
  6
Continuous
 62
     7
370
    15
100
AcDbCircle
 10
9.4339305391
 20
8.737740694
 30
0.0
 40
0.1210082525647299
100
AcDbArc
 50
2.6054784857
 51
57.39452166
  0
SPLINE
  5
15D
330
1F
100
AcDbEntity
  8
0
  6
Continuous
 62
     7
370
    15
100
AcDbSpline
210
0.0
220
0.0
230
1.0
 70
     8
 71
     3
 72
    18
 73
    14
 74
     0
 42
0.000000001
 43
0.00000001
 40
0.0
 40
0.0
 40
0.0
 40
0.0
 40
0.2500000000000019
 40
0.2500000000000019
 40
0.3750000000000029
 40
0.3750000000000029
 40
0.5000000000000039
 40
0.5000000000000039
 40
0.6250000000000049
 40
0.6250000000000049
 40
0.7500000000000058
 40
0.7500000000000058
 40
1.0
 40
1.0
 40
1.0
 40
1.0
 10
9.34021799714805
 20
9.101499311615555
 30
0.0
 10
9.32795060090896
 20
9.094417494507441
 30
0.0
 10
9.3138800147459
 20
9.088402579677807
 30
0.0
 10
9.292649066398692
 20
9.079454207686334
 30
0.0
 10
9.285569357094271
 20
9.076473030237242
 30
0.0
 10
9.271931005545206
 20
9.070202373021088
 30
0.0
 10
9.265385748583125
 20
9.066904973517845
 30
0.0
 10
9.2531064499468
 20
9.059830198759826
 30
0.0
 10
9.247372935260488
 20
9.056052511699495
 30
0.0
 10
9.236465813513353
 20
9.048165854271723
 30
0.0
 10
9.231278670623416
 20
9.04406489271507
 30
0.0
 10
9.215718494856985
 20
9.031761266733586
 30
0.0
 10
9.205306103190312
 20
9.023616333019561
 30
0.0
 10
9.192908651212068
 20
9.016459436331353
 30
0.0
  0
LINE
  5
15E
330
1F
100
AcDbEntity
  8
0
  6
Continuous
 62
     7
370
    15
100
AcDbLine
 10
10.0133882902
 20
9.4901122499
 30
0.0
 11
9.3402179971
 21
9.1014993116
 31
0.0
  0
LINE
  5
15F
330
1F
100
AcDbEntity
  8
0
  6
Continuous
 62
     7
370
    15
100
AcDbLine
 10
10.3196156364
 20
9.3133309659
 30
0.0
 11
10.0133882902
 21
9.4901122499
 31
0.0
  0
LINE
  5
160
330
1F
100
AcDbEntity
  8
0
  6
Continuous
 62
     7
370
    15
100
AcDbLine
 10
9.6464453433
 20
8.9247180276
 30
0.0
 11
10.3196156364
 21
9.3133309659
 31
0.0
  0
SPLINE
  5
161
330
1F
100
AcDbEntity
  8
0
  6
Continuous
 62
     7
370
    15
100
AcDbSpline
210
0.0
220
0.0
230
1.0
 70
     8
 71
     3
 72
    18
 73
    14
 74
     0
 42
0.000000001
 43
0.00000001
 40
0.0
 40
0.0
 40
0.0
 40
0.0
 40
0.2499999999999979
 40
0.2499999999999979
 40
0.374999999999997
 40
0.374999999999997
 40
0.4999999999999961
 40
0.4999999999999961
 40
0.6249999999999952
 40
0.6249999999999952
 40
0.7499999999999942
 40
0.7499999999999942
 40
1.0
 40
1.0
 40
1.0
 40
1.0
 10
9.49913599739522
 20
8.839678152275255
 30
0.0
 10
9.51143199875617
 20
8.84677648276872
 30
0.0
 10
9.525418472464874
 20
8.85275133294019
 30
0.0
 10
9.546494644835334
 20
8.86163470332407
 30
0.0
 10
9.553524883641224
 20
8.864592475333707
 30
0.0
 10
9.567120965589595
 20
8.870829057835682
 30
0.0
 10
9.573674785146224
 20
8.874116180278508
 30
0.0
 10
9.586030713780726
 20
8.88121008546797
 30
0.0
 10
9.591844437776968
 20
8.885030814777572
 30
0.0
 10
9.602807308102694
 20
8.8929485737274
 30
0.0
 10
9.607990085228874
 20
8.89704516169153
 30
0.0
 10
9.623534800416921
 20
8.909336592976285
 30
0.0
 10
9.633952175026156
 20
8.917505875011935
 30
0.0
 10
9.646445343331202
 20
8.924718027559456
 30
0.0
  0
LINE
  5
162
330
1F
100
AcDbEntity
  8
0
  6
Continuous
 62
     7
370
    15
100
AcDbLine
 10
9.7234722317
 20
9.2584631685
 30
0.0
 11
9.1329870465
 21
8.917583327
 31
0.0
  0
LINE
  5
163
330
1F
100
AcDbEntity
  8
0
  6
Continuous
 62
     7
370
    15
100
AcDbLine
 10
9.9183441793
 20
9.1459659878
 30
0.0
 11
9.26267823
 21
8.767458092
 31
0.0
  0
LINE
  5
164
330
1F
100
AcDbEntity
  8
0
  6
Continuous
 62
     7
370
    15
100
AcDbLine
 10
9.7234722317
 20
9.2584631685
 30
0.0
 11
9.9183441793
 21
9.1459659878
 31
0.0
  0
LWPOLYLINE
  5
165
330
1F
100
AcDbEntity
  8
0
  6
Continuous
 62
     7
370
    15
100
AcDbPolyline
 90
       17
 70
   128
 43
0.0
 10
9.4057575724
 20
8.9143140195
 10
9.4039325355
 20
8.9333118316
 10
9.3985371874
 20
8.9493722054
 10
9.3898073309
 20
8.9617932254
 10
9.3781245025
 20
8.9700320334
 10
9.363999298
 20
8.973728554
 10
9.3480490564
 20
8.9727212315
 10
9.33097088
 20
8.9670540907
 10
9.313511167
 20
8.9569748129
 10
9.2964329905
 20
8.9429239109
 10
9.280482749
 20
8.9255154765
 10
9.2663575444
 20
8.9055103418
 10
9.2546747161
 20
8.8837828273
 10
9.2459448595
 20
8.8612825296
 10
9.2405495115
 20
8.8389928195
 10
9.2387244745
 20
8.8178878646
 10
9.2403294556
 20
8.7999981744
  0
ARC
  5
166
330
1F
100
AcDbEntity
  8
0
  6
Continuous
 62
     7
370
    15
100
AcDbCircle
 10
9.2363088086
 20
8.9201395525
 30
0.0
 40
0.1695488731687378
100
AcDbArc
 50
330.9437994095
 51
358.0309856664
  0
LINE
  5
167
330
1F
100
AcDbEntity
  8
0
  6
Continuous
 62
     7
370
    15
100
AcDbLine
 10
9.6694382404
 20
9.0022756478
 30
0.0
 11
9.7234722317
 21
9.2584631685
 31
0.0
  0
SPLINE
  5
168
330
1F
100
AcDbEntity
  8
0
  6
Continuous
 62
     7
370
    15
100
AcDbSpline
210
0.0
220
0.0
230
1.0
 70
     8
 71
     3
 72
    11
 73
     7
 74
     0
 42
0.000000001
 43
0.00000001
 40
0.0
 40
0.0
 40
0.0
 40
0.0
 40
0.1029191112138259
 40
0.6134108899870239
 40
0.9913229390318118
 40
1.0
 40
1.0
 40
1.0
 40
1.0
 10
8.726194560966528
 20
6.781870980730686
 30
0.0
 10
8.726363046056349
 20
6.781484692604715
 30
0.0
 10
8.72736723845248
 20
6.779182366629016
 30
0.0
 10
8.720132367089775
 20
6.779421610992978
 30
0.0
 10
8.710943255287306
 20
6.781093687158809
 30
0.0
 10
8.706053140578273
 20
6.782310336600337
 30
0.0
 10
8.705943381088488
 20
6.782337644512298
 30
0.0
  0
SPLINE
  5
169
330
1F
100
AcDbEntity
  8
0
  6
Continuous
 62
     7
370
    15
100
AcDbSpline
210
0.0
220
0.0
230
1.0
 70
     8
 71
     3
 72
    11
 73
     7
 74
     0
 42
0.000000001
 43
0.00000001
 40
0.0
 40
0.0
 40
0.0
 40
0.0
 40
0.198395771313813
 40
0.6792205365865845
 40
0.9846775306182323
 40
1.0
 40
1.0
 40
1.0
 40
1.0
 10
8.936986325974557
 20
7.521719540983581
 30
0.0
 10
8.937021831475127
 20
7.519902205291822
 30
0.0
 10
8.937143386813675
 20
7.513680441009551
 30
0.0
 10
8.927515043225105
 20
7.507229640331579
 30
0.0
 10
8.916898434085041
 20
7.50361237780689
 30
0.0
 10
8.911945946403348
 20
7.502549854366372
 30
0.0
 10
8.91170938406217
 20
7.502499101482407
 30
0.0
  0
ARC
  5
16A
330
1F
100
AcDbEntity
  8
0
  6
Continuous
 62
     7
370
    15
100
AcDbCircle
 10
9.6841327566
 20
8.6893374921
 30
0.0
 40
0.1401037706622927
100
AcDbArc
 50
82.6224591421
 51
157.3721643252
  0
ARC
  5
16B
330
1F
100
AcDbEntity
  8
0
  6
Continuous
 62
     7
370
    15
100
AcDbCircle
 10
9.581239885
 20
8.8227805693
 30
0.0
 40
0.1210082525647323
100
AcDbArc
 50
2.6054784857
 51
57.39452166
  0
SPLINE
  5
16C
330
1F
100
AcDbEntity
  8
0
  6
Continuous
 62
     7
370
    15
100
AcDbSpline
210
0.0
220
0.0
230
1.0
 70
     8
 71
     3
 72
    11
 73
     7
 74
     0
 42
0.000000001
 43
0.00000001
 40
0.0
 40
0.0
 40
0.0
 40
0.0
 40
0.2320236452916205
 40
0.693772137150489
 40
0.9830264773086084
 40
1.0
 40
1.0
 40
1.0
 40
1.0
 10
9.02699661201514
 20
7.670188516304238
 30
0.0
 10
9.029583217933897
 20
7.671728605334726
 30
0.0
 10
9.037317408619366
 20
7.676333613831772
 30
0.0
 10
9.04213537897731
 20
7.69125064044938
 30
0.0
 10
9.043110501400125
 20
7.704730569594148
 30
0.0
 10
9.042858975120899
 20
7.710530317091438
 30
0.0
 10
9.042845033584136
 20
7.710851784069765
 30
0.0
  0
ARC
  5
16D
330
1F
100
AcDbEntity
  8
0
  6
Continuous
 62
     7
370
    15
100
AcDbCircle
 10
9.4259838125
 20
8.8062255716
 30
0.0
 40
0.1834527313672965
100
AcDbArc
 50
304.4620606115
 51
355.4394873771
  0
ELLIPSE
  5
16E
330
1F
100
AcDbEntity
  8
0
  6
Continuous
 62
     7
370
    15
100
AcDbEllipse
 10
10.2899964859
 20
9.2319376422
 30
0.0
 11
0.01427531185835029
 21
0.08692649891898617
 31
0.0
210
0.0
220
0.0
230
1.0
 40
0.7066768995
 41
4.45182431368524
 42
6.022620640480206
  0
SPLINE
  5
16F
330
1F
100
AcDbEntity
  8
0
  6
Continuous
 62
     7
370
    15
100
AcDbSpline
210
0.0
220
0.0
230
1.0
 70
     8
 71
     3
 72
    13
 73
     9
 74
     0
 42
0.000000001
 43
0.00000001
 40
0.0
 40
0.0
 40
0.0
 40
0.0
 40
0.0034291065693957
 40
0.214495344113647
 40
0.4625846841129796
 40
0.7003547463770426
 40
0.9341138415871579
 40
1.0
 40
1.0
 40
1.0
 40
1.0
 10
6.727535575790316
 20
3.389965482762408
 30
0.0
 10
6.727493052751109
 20
3.389823823927796
 30
0.0
 10
6.724833178016111
 20
3.380962868497639
 30
0.0
 10
6.717422941382839
 20
3.362938831827613
 30
0.0
 10
6.701190716162793
 20
3.341329864178632
 30
0.0
 10
6.679923442380676
 20
3.328772410293243
 30
0.0
 10
6.661830701674267
 20
3.324938890215967
 30
0.0
 10
6.651869366725515
 20
3.328771319722681
 30
0.0
 10
6.649679063076445
 20
3.329613996369591
 30
0.0
  0
SPLINE
  5
170
330
1F
100
AcDbEntity
  8
0
  6
Continuous
 62
     7
370
    15
100
AcDbSpline
210
0.0
220
0.0
230
1.0
 70
     8
 71
     3
 72
    12
 73
     8
 74
     0
 42
0.000000001
 43
0.00000001
 40
0.0
 40
0.0
 40
0.0
 40
0.0
 40
0.0389305233211341
 40
0.4000098289139726
 40
0.761287461835385
 40
0.9861207501356005
 40
1.0
 40
1.0
 40
1.0
 40
1.0
 10
8.548602040521503
 20
6.094089694318746
 30
0.0
 10
8.548960936632756
 20
6.093319348449183
 30
0.0
 10
8.55264858220784
 20
6.085404070328051
 30
0.0
 10
8.549473654025595
 20
6.067441756353213
 30
0.0
 10
8.5396493961111
 20
6.046375058907735
 30
0.0
 10
8.528627605310374
 20
6.034113743284351
 30
0.0
 10
8.523709855940512
 20
6.02957727260843
 30
0.0
 10
8.523423927631928
 20
6.029313512646353
 30
0.0
  0
SPLINE
  5
171
330
1F
100
AcDbEntity
  8
0
  6
Continuous
 62
     7
370
    15
100
AcDbSpline
210
0.0
220
0.0
230
1.0
 70
     8
 71
     3
 72
    11
 73
     7
 74
     0
 42
0.000000001
 43
0.00000001
 40
0.0
 40
0.0
 40
0.0
 40
0.0
 40
0.0068551619709239
 40
0.3007045398743632
 40
0.7239709519471322
 40
1.0
 40
1.0
 40
1.0
 40
1.0
 10
8.136293464179731
 20
4.203224101033197
 30
0.0
 10
8.136257899030856
 20
4.203063746734841
 30
0.0
 10
8.134697818937362
 20
4.196029738536603
 30
0.0
 10
8.130203516114046
 20
4.180332883542247
 30
0.0
 10
8.120712436472035
 20
4.162225228744957
 30
0.0
 10
8.110295785940476
 20
4.156311717624781
 30
0.0
 10
8.106184078809402
 20
4.153977509928283
 30
0.0
  0
SPLINE
  5
172
330
1F
100
AcDbEntity
  8
0
  6
Continuous
 62
     7
370
    15
100
AcDbSpline
210
0.0
220
0.0
230
1.0
 70
     8
 71
     3
 72
    11
 73
     7
 74
     0
 42
0.000000001
 43
0.00000001
 40
0.0
 40
0.0
 40
0.0
 40
0.0
 40
0.2376632119046779
 40
0.6953941628869614
 40
0.9836330204356769
 40
1.0
 40
1.0
 40
1.0
 40
1.0
 10
10.06343945530329
 20
8.604865348382042
 30
0.0
 10
10.0652428527638
 20
8.605886506046632
 30
0.0
 10
10.07051953003059
 20
8.608874377302143
 30
0.0
 10
10.07243858933931
 20
8.619432239371129
 30
0.0
 10
10.07161741209057
 20
8.629066327429735
 30
0.0
 10
10.0707652017277
 20
8.633247262999157
 30
0.0
 10
10.07071941104382
 20
8.633471911639095
 30
0.0
  0
SPLINE
  5
173
330
1F
100
AcDbEntity
  8
0
  6
Continuous
 62
     7
370
    15
100
AcDbSpline
210
0.0
220
0.0
230
1.0
 70
     8
 71
     3
 72
    11
 73
     7
 74
     0
 42
0.000000001
 43
0.00000001
 40
0.0
 40
0.0
 40
0.0
 40
0.0
 40
0.0949338894830002
 40
0.6404700671804174
 40
0.9663135881693339
 40
0.9999999999999999
 40
0.9999999999999999
 40
0.9999999999999999
 40
0.9999999999999999
 10
10.27657436262056
 20
9.032928499249596
 30
0.0
 10
10.27671616438127
 20
9.032758137035605
 30
0.0
 10
10.27767282784153
 20
9.031608790903949
 30
0.0
 10
10.27270365604073
 20
9.033224269705373
 30
0.0
 10
10.2664639531536
 20
9.03566923121202
 30
0.0
 10
10.26338743455067
 20
9.036976724533293
 30
0.0
 10
10.26309917796004
 20
9.037099231046565
 30
0.0
  0
SPLINE
  5
174
330
1F
100
AcDbEntity
  8
0
  6
Continuous
 62
     7
370
    15
100
AcDbSpline
210
0.0
220
0.0
230
1.0
 70
     8
 71
     3
 72
    11
 73
     7
 74
     0
 42
0.000000001
 43
0.00000001
 40
0.0
 40
0.0
 40
0.0
 40
0.0
 40
0.1117855775114711
 40
0.6462928947801849
 40
0.9809814561373624
 40
1.0
 40
1.0
 40
1.0
 40
1.0
 10
8.497247171740122
 20
5.903899627646738
 30
0.0
 10
8.497793689329896
 20
5.904130327076436
 30
0.0
 10
8.50095340315887
 20
5.90546412527798
 30
0.0
 10
8.498652921116244
 20
5.913506616768656
 30
0.0
 10
8.494406906964532
 20
5.922070598046572
 30
0.0
 10
8.492025380645204
 20
5.925946419674673
 30
0.0
 10
8.491897327908642
 20
5.926154819456723
 30
0.0
  0
SPLINE
  5
175
330
1F
100
AcDbEntity
  8
0
  6
Continuous
 62
     7
370
    15
100
AcDbSpline
210
0.0
220
0.0
230
1.0
 70
     8
 71
     3
 72
    13
 73
     9
 74
     0
 42
0.000000001
 43
0.00000001
 40
0.0
 40
0.0
 40
0.0
 40
0.0
 40
0.0032864897606989
 40
0.2168660550834676
 40
0.474286919302731
 40
0.7269191827018868
 40
0.9775372182114374
 40
1.0
 40
1.0
 40
1.0
 40
1.0
 10
8.143155167960437
 20
4.238965654369626
 30
0.0
 10
8.143197649028183
 20
4.239094718368489
 30
0.0
 10
8.146000853130044
 20
4.247611282339331
 30
0.0
 10
8.152357658370011
 20
4.267236375410294
 30
0.0
 10
8.15678462158459
 20
4.298429702808312
 30
0.0
 10
8.152331772746575
 20
4.328581410920957
 30
0.0
 10
8.145113633851631
 20
4.348346164929104
 30
0.0
 10
8.137811796884272
 20
4.354682910778766
 30
0.0
 10
8.137211170402793
 20
4.355204151855598
 30
0.0
  0
ARC
  5
176
330
1F
100
AcDbEntity
  8
0
  6
Continuous
 62
     8
370
    15
100
AcDbCircle
 10
8.4112815189
 20
7.8244071246
 30
0.0
 40
0.0340667982435488
100
AcDbArc
 50
245.1603101869
 51
306.1922296753
  0
ARC
  5
177
330
1F
100
AcDbEntity
  8
0
  6
Continuous
 62
     8
370
    15
100
AcDbCircle
 10
8.4394578485
 20
7.9235780578
 30
0.0
 40
0.0198725338608444
100
AcDbArc
 50
306.3190324315
 51
5.5660517551
  0
ARC
  5
178
330
1F
100
AcDbEntity
  8
0
  6
Continuous
 62
     8
370
    15
100
AcDbCircle
 10
8.6771391285
 20
8.0597248674
 30
0.0
 40
0.0188789585207604
100
AcDbArc
 50
304.0563508325
 51
7.2558295609
  0
LINE
  5
179
330
1F
100
AcDbEntity
  8
0
  6
Continuous
 62
     8
370
    15
100
AcDbLine
 10
8.4313978346
 20
7.7969138421
 30
0.0
 11
8.3949527232
 21
7.817953157
 31
0.0
  0
LINE
  5
17A
330
1F
100
AcDbEntity
  8
0
  6
Continuous
 62
     8
370
    15
100
AcDbLine
 10
8.6680280566
 20
7.9335175616
 30
0.0
 11
8.5821061494
 21
7.9831192228
 31
0.0
  0
LWPOLYLINE
  5
17B
330
1F
100
AcDbEntity
  8
0
  6
Continuous
 62
     8
370
    15
100
AcDbPolyline
 90
       10
 70
   128
 43
0.0
 10
8.6680280566
 20
7.9335175616
 10
8.6817534997
 20
7.9437199246
 10
8.6943669889
 20
7.9576534199
 10
8.7048466545
 20
7.9741892384
 10
8.7123434963
 20
7.9919877465
 10
8.7162501647
 20
8.0096070149
 10
8.7162501647
 20
8.0256196353
 10
8.7123434963
 20
8.0387283604
 10
8.7048466545
 20
8.0478711992
 10
8.7024551808
 20
8.0494549115
  0
LINE
  5
17C
330
1F
100
AcDbEntity
  8
0
  6
Continuous
 62
     8
370
    15
100
AcDbLine
 10
9.0995302263
 20
8.6089906509
 30
0.0
 11
9.4991359974
 21
8.8396781523
 31
0.0
  0
LWPOLYLINE
  5
17D
330
1F
100
AcDbEntity
  8
0
  6
Continuous
 62
     8
370
    15
100
AcDbPolyline
 90
       31
 70
   128
 43
0.0
 10
7.6997346523
 20
5.3841357823
 10
7.7173983758
 20
5.3755830603
 10
7.743794934
 20
5.367649829
 10
7.772206286
 20
5.3643112057
 10
7.8022993347
 20
5.3656063328
 10
7.8337212666
 20
5.371520026
 10
7.8661036883
 20
5.3819829527
 10
7.8990669454
 20
5.3968724447
 10
7.932224574
 20
5.4160139363
 10
7.9651878312
 20
5.4391830109
 10
7.9975702529
 20
5.4661080324
 10
8.0289921848
 20
5.4964733296
 10
8.0590852335
 20
5.529922897
 10
8.0874965855
 20
5.566064569
 10
8.1138931437
 20
5.6044746177
 10
8.1379654326
 20
5.6447027203
 10
8.1594312266
 20
5.6862772391
 10
8.1780388589
 20
5.7287107509
 10
8.193570172
 20
5.7715057615
 10
8.2058430755
 20
5.8141605385
 10
8.2147136807
 20
5.8561749938
 10
8.2200779881
 20
5.8970565462
 10
8.2218731059
 20
5.9363258969
 10
8.2200779881
 20
5.9735226487
 10
8.2147136807
 20
6.0082107037
 10
8.2058430755
 20
6.0399833761
 10
8.193570172
 20
6.0684681604
 10
8.1780388589
 20
6.0933310986
 10
8.1594312266
 20
6.1142806954
 10
8.1379654326
 20
6.131071336
 10
8.1327070781
 20
6.1342898192
  0
LINE
  5
17E
330
1F
100
AcDbEntity
  8
0
  6
Continuous
 62
     8
370
    15
100
AcDbLine
 10
9.1929086512
 20
9.0164594363
 30
0.0
 11
9.0850924294
 21
8.9542184563
 31
0.0
  0
ARC
  5
17F
330
1F
100
AcDbEntity
  8
0
  6
Continuous
 62
     8
370
    15
100
AcDbCircle
 10
7.2805961853
 20
6.1261545883
 30
0.0
 40
0.6636328713771528
100
AcDbArc
 50
302.7264578374
 51
357.2724127238
  0
LWPOLYLINE
  5
180
330
1F
100
AcDbEntity
  8
0
  6
Continuous
 62
     8
370
    15
100
AcDbPolyline
 90
       34
 70
   128
 43
0.0
 10
7.2600259429
 20
4.174211355
 10
7.2601538331
 20
4.1741374305
 10
7.2874813446
 20
4.1613118493
 10
7.3171049761
 20
4.153042621
 10
7.3487394357
 20
4.1494093828
 10
7.3820800663
 20
4.1504471248
 10
7.4168057795
 20
4.1561458529
 10
7.4525821477
 20
4.1664506854
 10
7.4890646248
 20
4.1812623809
 10
7.5259018646
 20
4.2004382949
 10
7.5627391045
 20
4.2237937528
 10
7.5992215815
 20
4.2511038287
 10
7.6349979497
 20
4.2821055116
 10
7.6697236629
 20
4.3165002385
 10
7.7030642935
 20
4.3539567693
 10
7.7346987532
 20
4.3941143771
 10
7.7643223846
 20
4.4365863223
 10
7.7916498961
 20
4.4809635767
 10
7.8164181088
 20
4.5268187632
 10
7.8383884912
 20
4.5737102712
 10
7.8573494566
 20
4.6211865099
 10
7.8731184005
 20
4.6687902571
 10
7.8855434594
 20
4.7160630628
 10
7.8945049731
 20
4.762549664
 10
7.8999166374
 20
4.8078023692
 10
7.9017263349
 20
4.8513853703
 10
7.8999166374
 20
4.8928789391
 10
7.8945049731
 20
4.9318834698
 10
7.8855434594
 20
4.9680233275
 10
7.8731184005
 20
5.0009504656
 10
7.8573494566
 20
5.0303477777
 10
7.8383884912
 20
5.0559321517
 10
7.8164181088
 20
5.0774571961
 10
7.7920716924
 20
5.0944712616
  0
ARC
  5
181
330
1F
100
AcDbEntity
  8
0
  6
Continuous
 62
     8
370
    15
100
AcDbCircle
 10
9.16984408
 20
8.9842640561
 30
0.0
 40
0.0396045067639262
100
AcDbArc
 50
54.3824225248
 51
114.3071190461
  0
LWPOLYLINE
  5
182
330
1F
100
AcDbEntity
  8
0
  6
Continuous
 62
     8
370
    15
100
AcDbPolyline
 90
       17
 70
   128
 43
0.0
 10
9.5417285011
 20
8.6030156938
 10
9.544746041
 20
8.6014595925
 10
9.5588712455
 20
8.5977630719
 10
9.5748214871
 20
8.5987703944
 10
9.5918996635
 20
8.6044375352
 10
9.6093593765
 20
8.6145168129
 10
9.626437553
 20
8.628567715
 10
9.6423877945
 20
8.6459761493
 10
9.6565129991
 20
8.665981284
 10
9.6681958274
 20
8.6877087985
 10
9.676925684
 20
8.7102090963
 10
9.682321032
 20
8.7324988063
 10
9.684146069
 20
8.7536037613
 10
9.682321032
 20
8.7726015734
 10
9.676925684
 20
8.7886619472
 10
9.6681958274
 20
8.8010829671
 10
9.6594296989
 20
8.8078231042
  0
LWPOLYLINE
  5
183
330
1F
100
AcDbEntity
  8
0
  6
Continuous
 62
     8
370
    15
100
AcDbPolyline
 90
       21
 70
   128
 43
0.0
 10
7.6174231354
 20
5.0853733801
 10
7.6215281408
 20
5.0535891973
 10
7.6233378384
 20
5.0120956286
 10
7.6215281408
 20
4.9685126275
 10
7.6161164766
 20
4.9232599222
 10
7.6071549629
 20
4.876773321
 10
7.594729904
 20
4.8295005153
 10
7.5789609601
 20
4.7818967681
 10
7.5599999947
 20
4.7344205294
 10
7.5380296123
 20
4.6875290214
 10
7.5132613996
 20
4.6416738349
 10
7.4859338881
 20
4.5972965805
 10
7.4563102566
 20
4.5548246354
 10
7.424675797
 20
4.5146670275
 10
7.3913351663
 20
4.4772104967
 10
7.3566094531
 20
4.4428157698
 10
7.320833085
 20
4.4118140869
 10
7.2843506079
 20
4.384504011
 10
7.2475133681
 20
4.3611485532
 10
7.2106761282
 20
4.3419726392
 10
7.181371454
 20
4.3297394637
  0
SPLINE
  5
184
330
1F
100
AcDbEntity
  8
0
  6
Continuous
 62
     8
370
    15
100
AcDbSpline
210
0.0
220
0.0
230
1.0
 70
     8
 71
     3
 72
    11
 73
     7
 74
     0
 42
0.000000001
 43
0.00000001
 40
0.0
 40
0.0
 40
0.0
 40
0.0
 40
0.1817479060567585
 40
0.3637579550422231
 40
0.8038267621067336
 40
1.0
 40
1.0
 40
1.0
 40
1.0
 10
9.80540517997738
 20
8.119426125265914
 30
0.0
 10
9.808888262314703
 20
8.12096389820707
 30
0.0
 10
9.815859450790859
 20
8.124041662086334
 30
0.0
 10
9.82697083986042
 20
8.136461117458847
 30
0.0
 10
9.8362709844635
 20
8.152112765451346
 30
0.0
 10
9.839542317812068
 20
8.166822233058522
 30
0.0
 10
9.840550971767433
 20
8.171357620040652
 30
0.0
  0
LWPOLYLINE
  5
185
330
1F
100
AcDbEntity
  8
0
  6
Continuous
 62
     8
370
    15
100
AcDbPolyline
 90
        9
 70
   128
 43
0.0
 10
6.6093815233
 20
3.3445234049
 10
6.5934046243
 20
3.3563588368
 10
6.5784642662
 20
3.3743597378
 10
6.5672262228
 20
3.3968233895
 10
6.5599549361
 20
3.4232212006
 10
6.5568215064
 20
3.4529320057
 10
6.5578996661
 20
3.485256681
 10
6.5631640453
 20
3.5194345961
 10
6.572490768
 20
3.5546615122
  0
LWPOLYLINE
  5
186
330
1F
100
AcDbEntity
  8
0
  6
Continuous
 62
     8
370
    15
100
AcDbPolyline
 90
       17
 70
   128
 43
0.0
 10
6.8300212946
 20
3.626357038
 10
6.8330388345
 20
3.6248009367
 10
6.8471640391
 20
3.6211044161
 10
6.8631142806
 20
3.6221117386
 10
6.880192457
 20
3.6277788794
 10
6.8976521701
 20
3.6378581572
 10
6.9147303465
 20
3.6519090592
 10
6.930680588
 20
3.6693174936
 10
6.9448057926
 20
3.6893226282
 10
6.956488621
 20
3.7110501428
 10
6.9652184775
 20
3.7335504405
 10
6.9706138255
 20
3.7558401505
 10
6.9724388625
 20
3.7769451055
 10
6.9706138255
 20
3.7959429176
 10
6.9652184775
 20
3.8120032914
 10
6.956488621
 20
3.8244243114
 10
6.9477224924
 20
3.8311644484
  0
LWPOLYLINE
  5
187
330
1F
100
AcDbEntity
  8
0
  6
Continuous
 62
     8
370
    15
100
AcDbPolyline
 90
        9
 70
   128
 43
0.0
 10
6.2941022715
 20
3.7153717704
 10
6.2847755488
 20
3.6801448543
 10
6.2795111696
 20
3.6459669392
 10
6.2784330099
 20
3.6136422639
 10
6.2815664396
 20
3.5839314589
 10
6.2888377263
 20
3.5575336477
 10
6.3000757696
 20
3.535069996
 10
6.3150161277
 20
3.517069095
 10
6.3307764282
 20
3.5053582759
  0
ARC
  5
188
330
1F
100
AcDbEntity
  8
0
  6
Continuous
 62
     8
370
    15
100
AcDbCircle
 10
9.3172977205
 20
9.0703772849
 30
0.0
 40
0.0386512565062649
100
AcDbArc
 50
53.6296622715
 51
115.8116754754
  0
ARC
  5
189
330
1F
100
AcDbEntity
  8
0
  6
Continuous
 62
     8
370
    15
100
AcDbCircle
 10
9.1432704653
 20
8.9694184461
 30
0.0
 40
0.179102583009795
100
AcDbArc
 50
302.2054792274
 51
357.7998973053
  0
ELLIPSE
  5
18A
330
1F
100
AcDbEntity
  8
0
  6
Continuous
 62
     8
370
    15
100
AcDbEllipse
 10
9.9837691398
 20
9.4087189262
 30
0.0
 11
0.01427531185835385
 21
0.08692649891898618
 31
0.0
210
0.0
220
0.0
230
1.0
 40
0.7066768995
 41
6.022620640480199
 42
6.807937539815541
  0
ARC
  5
18B
330
1F
100
AcDbEntity
  8
0
  6
Continuous
 62
     8
370
    15
100
AcDbCircle
 10
9.8281084141
 20
8.1457327447
 30
0.0
 40
0.028485987374874
100
AcDbArc
 50
34.2874585502
 51
64.1003858165
  0
SPLINE
  5
18C
330
1F
100
AcDbEntity
  8
0
  6
Continuous
 62
     8
370
    15
100
AcDbSpline
210
0.0
220
0.0
230
1.0
 70
     8
 71
     3
 72
    12
 73
     8
 74
     0
 42
0.000000001
 43
0.00000001
 40
0.0
 40
0.0
 40
0.0
 40
0.0
 40
0.1348312416660054
 40
0.4602804871227874
 40
0.7857330484308653
 40
0.9678120734502622
 40
1.0
 40
1.0
 40
1.0
 40
1.0
 10
8.30644073782785
 20
5.207393904962735
 30
0.0
 10
8.307979901674118
 20
5.20436187716169
 30
0.0
 10
8.313234226088607
 20
5.194011284702624
 30
0.0
 10
8.311026248637717
 20
5.172660488995644
 30
0.0
 10
8.30148874633051
 20
5.150802614527143
 30
0.0
 10
8.290980794668132
 20
5.137769421151413
 30
0.0
 10
8.286209622825908
 20
5.132951760072303
 30
0.0
 10
8.285492880800648
 20
5.132228034272219
 30
0.0
  0
ELLIPSE
  5
18D
330
1F
100
AcDbEntity
  8
0
  6
Continuous
 62
     8
370
    15
100
AcDbEllipse
 10
10.2899964859
 20
9.2319376422
 30
0.0
 11
0.08308852468158534
 21
-0.007497284964554041
 31
0.0
210
0.0
220
0.0
230
1.0
 40
0.4529003516
 41
5.486824720935467
 42
6.104392632134511
  0
ARC
  5
18E
330
1F
100
AcDbEntity
  8
0
  6
Continuous
 62
     8
370
    15
100
AcDbCircle
 10
10.336859063
 20
9.2897214127
 30
0.0
 40
0.0292360524099059
100
AcDbArc
 50
65.1215063318
 51
126.1428239487
  0
ARC
  5
18F
330
1F
100
AcDbEntity
  8
0
  6
Continuous
 62
     8
370
    15
100
AcDbCircle
 10
10.0306343019
 20
9.4664950473
 30
0.0
 40
0.0292437545860532
100
AcDbArc
 50
65.1723838832
 51
126.1380745459
  0
LWPOLYLINE
  5
190
330
1F
100
AcDbEntity
  8
0
  6
Continuous
 62
     8
370
    15
100
AcDbPolyline
 90
        5
 70
   128
 43
0.0
 10
8.1546821086
 20
4.8883709604
 10
8.1641183199
 20
4.8858199241
 10
8.1705173244
 20
4.884910924
 10
8.173633212
 20
4.8856788925
 10
8.1738165411
 20
4.8859548022
  0
LWPOLYLINE
  5
191
330
1F
100
AcDbEntity
  8
0
  6
Continuous
 62
     8
370
    15
100
AcDbPolyline
 90
        5
 70
   128
 43
0.0
 10
8.1758855676
 20
4.8905646749
 10
8.1755650691
 20
4.8899809902
 10
8.1718480107
 20
4.8878742605
 10
8.1647966979
 20
4.88733062
 10
8.1546821086
 20
4.8883709604
  0
LWPOLYLINE
  5
192
330
1F
100
AcDbEntity
  8
0
  6
Continuous
 62
     8
370
    15
100
AcDbPolyline
 90
        5
 70
   128
 43
0.0
 10
8.27333587
 20
5.0413452977
 10
8.2745582375
 20
5.0429311083
 10
8.2763993921
 20
5.0494121362
 10
8.2753790918
 20
5.0581867557
 10
8.2715365462
 20
5.068917763
  0
LWPOLYLINE
  5
193
330
1F
100
AcDbEntity
  8
0
  6
Continuous
 62
     8
370
    15
100
AcDbPolyline
 90
        5
 70
   128
 43
0.0
 10
8.2835713579
 20
5.0541067308
 10
8.2836961186
 20
5.0543704184
 10
8.2826936741
 20
5.05729167
 10
8.2785878889
 20
5.0622037072
 10
8.2715365462
 20
5.068917763
  0
ENDSEC
  0
SECTION
  2
OBJECTS
  0
DICTIONARY
  5
C
330
0
100
AcDbDictionary
281
     1
  3
ACAD_GROUP
350
D
  3
ACAD_LAYOUT
350
1A
  3
ACAD_MLINESTYLE
350
17
  3
ACAD_PLOTSETTINGS
350
19
  3
ACAD_PLOTSTYLENAME
350
E
  3
ACAD_SCALELIST
350
47
  0
DICTIONARY
  5
D
102
{ACAD_REACTORS
330
C
102
}
330
C
100
AcDbDictionary
281
     1
  0
DICTIONARY
  5
1A
102
{ACAD_REACTORS
330
C
102
}
330
C
100
AcDbDictionary
281
     1
  3
Layout1
350
1E
  3
Layout2
350
26
  3
Model
350
22
  0
DICTIONARY
  5
17
102
{ACAD_REACTORS
330
C
102
}
330
C
100
AcDbDictionary
281
     1
  3
Standard
350
18
  0
DICTIONARY
  5
19
102
{ACAD_REACTORS
330
C
102
}
330
C
100
AcDbDictionary
281
     1
  0
ACDBDICTIONARYWDFLT
  5
E
102
{ACAD_REACTORS
330
C
102
}
330
C
100
AcDbDictionary
281
     1
  3
Normal
350
F
100
AcDbDictionaryWithDefault
340
F
  0
DICTIONARY
  5
47
102
{ACAD_REACTORS
330
C
102
}
330
C
100
AcDbDictionary
281
     1
  3
A0
350
48
  3
A1
350
49
  3
A2
350
4A
  3
A3
350
4B
  3
A4
350
4C
  3
A5
350
4D
  3
A6
350
4E
  3
A7
350
4F
  3
A8
350
50
  3
A9
350
51
  3
B0
350
52
  3
B1
350
53
  3
B2
350
54
  3
B3
350
55
  3
B4
350
56
  3
B5
350
57
  3
B6
350
58
  3
B7
350
59
  3
B8
350
5A
  3
B9
350
5B
  3
C0
350
5C
  3
C1
350
5D
  3
C2
350
5E
  3
C3
350
5F
  3
C4
350
60
  3
C5
350
61
  3
C6
350
62
  3
C7
350
63
  3
C8
350
64
  3
C9
350
65
  3
D0
350
66
  3
D1
350
67
  3
D2
350
68
  0
LAYOUT
  5
1E
102
{ACAD_REACTORS
330
1A
102
}
330
1A
100
AcDbPlotSettings
  1

  2
none_device
  4

  6

 40
0.0
 41
0.0
 42
0.0
 43
0.0
 44
0.0
 45
0.0
 46
0.0
 47
0.0
 48
0.0
 49
0.0
140
0.0
141
0.0
142
1.0
143
1.0
 70
   688
 72
     0
 73
     0
 74
     5
  7

 75
    16
147
1.0
148
0.0
149
0.0
100
AcDbLayout
  1
Layout1
 70
     1
 71
     1
 10
0.0
 20
0.0
 11
12.0
 21
9.0
 12
0.0
 22
0.0
 32
0.0
 14
1.0000000000E+20
 24
1.0000000000E+20
 34
1.0000000000E+20
 15
-1.0000000000E+20
 25
-1.0000000000E+20
 35
-1.0000000000E+20
146
0.0
 13
0.0
 23
0.0
 33
0.0
 16
1.0
 26
0.0
 36
0.0
 17
0.0
 27
1.0
 37
0.0
 76
     0
330
1B
  0
LAYOUT
  5
26
102
{ACAD_REACTORS
330
1A
102
}
330
1A
100
AcDbPlotSettings
  1

  2
none_device
  4

  6

 40
0.0
 41
0.0
 42
0.0
 43
0.0
 44
0.0
 45
0.0
 46
0.0
 47
0.0
 48
0.0
 49
0.0
140
0.0
141
0.0
142
1.0
143
1.0
 70
   688
 72
     0
 73
     0
 74
     5
  7

 75
    16
147
1.0
148
0.0
149
0.0
100
AcDbLayout
  1
Layout2
 70
     1
 71
     2
 10
0.0
 20
0.0
 11
0.0
 21
0.0
 12
0.0
 22
0.0
 32
0.0
 14
0.0
 24
0.0
 34
0.0
 15
0.0
 25
0.0
 35
0.0
146
0.0
 13
0.0
 23
0.0
 33
0.0
 16
1.0
 26
0.0
 36
0.0
 17
0.0
 27
1.0
 37
0.0
 76
     0
330
23
  0
LAYOUT
  5
22
102
{ACAD_REACTORS
330
1A
102
}
330
1A
100
AcDbPlotSettings
  1

  2
none_device
  4
Letter_(8.50_x_11.00_Inches)
  6

 40
6.35
 41
6.35
 42
6.35000508
 43
6.35000508
 44
215.9
 45
279.4
 46
0.0
 47
0.0
 48
0.0
 49
0.0
140
0.0
141
0.0
142
1.0
143
1.0
 70
  1712
 72
     0
 73
     0
 74
     0
  7

 75
     0
147
1.0
148
0.0
149
0.0
100
AcDbLayout
  1
Model
 70
     1
 71
     0
 10
0.0
 20
0.0
 11
17.0
 21
11.0
 12
0.0
 22
0.0
 32
0.0
 14
0.0
 24
0.0
 34
0.0
 15
17.0
 25
11.0
 35
0.0
146
0.0
 13
0.0
 23
0.0
 33
0.0
 16
1.0
 26
0.0
 36
0.0
 17
0.0
 27
1.0
 37
0.0
 76
     0
330
1F
331
29
  0
MLINESTYLE
  5
18
102
{ACAD_REACTORS
330
17
102
}
330
17
100
AcDbMlineStyle
  2
Standard
 70
     0
  3

 62
   256
 51
90.0
 52
90.0
 71
     2
 49
0.5
 62
   256
  6
BYLAYER
 49
-0.5
 62
   256
  6
BYLAYER
  0
ACDBPLACEHOLDER
  5
F
102
{ACAD_REACTORS
330
E
102
}
330
E
  0
SCALE
  5
48
102
{ACAD_REACTORS
330
47
102
}
330
47
100
AcDbScale
 70
     0
300
1:1
140
1.0
141
1.0
290
     1
  0
SCALE
  5
49
102
{ACAD_REACTORS
330
47
102
}
330
47
100
AcDbScale
 70
     0
300
1:2
140
1.0
141
2.0
290
     0
  0
SCALE
  5
4A
102
{ACAD_REACTORS
330
47
102
}
330
47
100
AcDbScale
 70
     0
300
1:4
140
1.0
141
4.0
290
     0
  0
SCALE
  5
4B
102
{ACAD_REACTORS
330
47
102
}
330
47
100
AcDbScale
 70
     0
300
1:5
140
1.0
141
5.0
290
     0
  0
SCALE
  5
4C
102
{ACAD_REACTORS
330
47
102
}
330
47
100
AcDbScale
 70
     0
300
1:8
140
1.0
141
8.0
290
     0
  0
SCALE
  5
4D
102
{ACAD_REACTORS
330
47
102
}
330
47
100
AcDbScale
 70
     0
300
1:10
140
1.0
141
10.0
290
     0
  0
SCALE
  5
4E
102
{ACAD_REACTORS
330
47
102
}
330
47
100
AcDbScale
 70
     0
300
1:16
140
1.0
141
16.0
290
     0
  0
SCALE
  5
4F
102
{ACAD_REACTORS
330
47
102
}
330
47
100
AcDbScale
 70
     0
300
1:20
140
1.0
141
20.0
290
     0
  0
SCALE
  5
50
102
{ACAD_REACTORS
330
47
102
}
330
47
100
AcDbScale
 70
     0
300
1:30
140
1.0
141
30.0
290
     0
  0
SCALE
  5
51
102
{ACAD_REACTORS
330
47
102
}
330
47
100
AcDbScale
 70
     0
300
1:40
140
1.0
141
40.0
290
     0
  0
SCALE
  5
52
102
{ACAD_REACTORS
330
47
102
}
330
47
100
AcDbScale
 70
     0
300
1:50
140
1.0
141
50.0
290
     0
  0
SCALE
  5
53
102
{ACAD_REACTORS
330
47
102
}
330
47
100
AcDbScale
 70
     0
300
1:100
140
1.0
141
100.0
290
     0
  0
SCALE
  5
54
102
{ACAD_REACTORS
330
47
102
}
330
47
100
AcDbScale
 70
     0
300
2:1
140
2.0
141
1.0
290
     0
  0
SCALE
  5
55
102
{ACAD_REACTORS
330
47
102
}
330
47
100
AcDbScale
 70
     0
300
4:1
140
4.0
141
1.0
290
     0
  0
SCALE
  5
56
102
{ACAD_REACTORS
330
47
102
}
330
47
100
AcDbScale
 70
     0
300
8:1
140
8.0
141
1.0
290
     0
  0
SCALE
  5
57
102
{ACAD_REACTORS
330
47
102
}
330
47
100
AcDbScale
 70
     0
300
10:1
140
10.0
141
1.0
290
     0
  0
SCALE
  5
58
102
{ACAD_REACTORS
330
47
102
}
330
47
100
AcDbScale
 70
     0
300
100:1
140
100.0
141
1.0
290
     0
  0
SCALE
  5
59
102
{ACAD_REACTORS
330
47
102
}
330
47
100
AcDbScale
 70
     0
300
1/128" = 1'-0"
140
0.0078125
141
12.0
290
     0
  0
SCALE
  5
5A
102
{ACAD_REACTORS
330
47
102
}
330
47
100
AcDbScale
 70
     0
300
1/64" = 1'-0"
140
0.015625
141
12.0
290
     0
  0
SCALE
  5
5B
102
{ACAD_REACTORS
330
47
102
}
330
47
100
AcDbScale
 70
     0
300
1/32" = 1'-0"
140
0.03125
141
12.0
290
     0
  0
SCALE
  5
5C
102
{ACAD_REACTORS
330
47
102
}
330
47
100
AcDbScale
 70
     0
300
1/16" = 1'-0"
140
0.0625
141
12.0
290
     0
  0
SCALE
  5
5D
102
{ACAD_REACTORS
330
47
102
}
330
47
100
AcDbScale
 70
     0
300
3/32" = 1'-0"
140
0.09375
141
12.0
290
     0
  0
SCALE
  5
5E
102
{ACAD_REACTORS
330
47
102
}
330
47
100
AcDbScale
 70
     0
300
1/8" = 1'-0"
140
0.125
141
12.0
290
     0
  0
SCALE
  5
5F
102
{ACAD_REACTORS
330
47
102
}
330
47
100
AcDbScale
 70
     0
300
3/16" = 1'-0"
140
0.1875
141
12.0
290
     0
  0
SCALE
  5
60
102
{ACAD_REACTORS
330
47
102
}
330
47
100
AcDbScale
 70
     0
300
1/4" = 1'-0"
140
0.25
141
12.0
290
     0
  0
SCALE
  5
61
102
{ACAD_REACTORS
330
47
102
}
330
47
100
AcDbScale
 70
     0
300
3/8" = 1'-0"
140
0.375
141
12.0
290
     0
  0
SCALE
  5
62
102
{ACAD_REACTORS
330
47
102
}
330
47
100
AcDbScale
 70
     0
300
1/2" = 1'-0"
140
0.5
141
12.0
290
     0
  0
SCALE
  5
63
102
{ACAD_REACTORS
330
47
102
}
330
47
100
AcDbScale
 70
     0
300
3/4" = 1'-0"
140
0.75
141
12.0
290
     0
  0
SCALE
  5
64
102
{ACAD_REACTORS
330
47
102
}
330
47
100
AcDbScale
 70
     0
300
1" = 1'-0"
140
1.0
141
12.0
290
     0
  0
SCALE
  5
65
102
{ACAD_REACTORS
330
47
102
}
330
47
100
AcDbScale
 70
     0
300
1-1/2" = 1'-0"
140
1.5
141
12.0
290
     0
  0
SCALE
  5
66
102
{ACAD_REACTORS
330
47
102
}
330
47
100
AcDbScale
 70
     0
300
3" = 1'-0"
140
3.0
141
12.0
290
     0
  0
SCALE
  5
67
102
{ACAD_REACTORS
330
47
102
}
330
47
100
AcDbScale
 70
     0
300
6" = 1'-0"
140
6.0
141
12.0
290
     0
  0
SCALE
  5
68
102
{ACAD_REACTORS
330
47
102
}
330
47
100
AcDbScale
 70
     0
300
1'-0" = 1'-0"
140
12.0
141
12.0
290
     0
  0
ENDSEC
  0
EOF
