  0
SECTION
  2
HEADER
  9
$ACADVER
  1
AC1015
  9
$ACADMAINTVER
 70
     6
  9
$DWGCODEPAGE
  3
ANSI_1252
  9
$INSBASE
 10
0.0
 20
0.0
 30
0.0
  9
$EXTMIN
 10
0.0
 20
0.0
 30
0.0
  9
$EXTMAX
 10
17.0
 20
11.0
 30
0.0
  9
$LIMMIN
 10
0.0
 20
0.0
  9
$LIMMAX
 10
17.0
 20
11.0
  9
$ORTHOMODE
 70
     0
  9
$REGENMODE
 70
     1
  9
$FILLMODE
 70
     1
  9
$QTEXTMODE
 70
     0
  9
$MIRRTEXT
 70
     1
  9
$LTSCALE
 40
1.0
  9
$ATTMODE
 70
     1
  9
$TEXTSIZE
 40
0.125
  9
$TRACEWID
 40
0.05
  9
$TEXTSTYLE
  7
Standard
  9
$CLAYER
  8
0
  9
$CELTYPE
  6
ByLayer
  9
$CECOLOR
 62
   256
  9
$CELTSCALE
 40
1.0
  9
$DISPSILH
 70
     0
  9
$DIMSCALE
 40
1.0
  9
$DIMASZ
 40
0.13
  9
$DIMEXO
 40
0.05
  9
$DIMDLI
 40
0.38
  9
$DIMRND
 40
0.0
  9
$DIMDLE
 40
0.0
  9
$DIMEXE
 40
0.125
  9
$DIMTP
 40
0.0
  9
$DIMTM
 40
0.0
  9
$DIMTXT
 40
0.125
  9
$DIMCEN
 40
0.09
  9
$DIMTSZ
 40
0.0
  9
$DIMTOL
 70
     0
  9
$DIMLIM
 70
     0
  9
$DIMTIH
 70
     1
  9
$DIMTOH
 70
     1
  9
$DIMSE1
 70
     0
  9
$DIMSE2
 70
     0
  9
$DIMTAD
 70
     0
  9
$DIMZIN
 70
     0
  9
$DIMBLK
  1

  9
$DIMASO
 70
     1
  9
$DIMSHO
 70
     1
  9
$DIMPOST
  1

  9
$DIMAPOST
  1

  9
$DIMALT
 70
     0
  9
$DIMALTD
 70
     2
  9
$DIMALTF
 40
25.4
  9
$DIMLFAC
 40
1.0
  9
$DIMTOFL
 70
     0
  9
$DIMTVP
 40
0.0
  9
$DIMTIX
 70
     0
  9
$DIMSOXD
 70
     0
  9
$DIMSAH
 70
     0
  9
$DIMBLK1
  1

  9
$DIMBLK2
  1

  9
$DIMSTYLE
  2
Standard
  9
$DIMCLRD
 70
     0
  9
$DIMCLRE
 70
     0
  9
$DIMCLRT
 70
     0
  9
$DIMTFAC
 40
1.0
  9
$DIMGAP
 40
0.06
  9
$DIMJUST
 70
     0
  9
$DIMSD1
 70
     0
  9
$DIMSD2
 70
     0
  9
$DIMTOLJ
 70
     1
  9
$DIMTZIN
 70
     0
  9
$DIMALTZ
 70
     0
  9
$DIMALTTZ
 70
     0
  9
$DIMUPT
 70
     0
  9
$DIMDEC
 70
     3
  9
$DIMTDEC
 70
     3
  9
$DIMALTU
 70
     2
  9
$DIMALTTD
 70
     2
  9
$DIMTXSTY
  7
Standard
  9
$DIMAUNIT
 70
     0
  9
$DIMADEC
 70
     2
  9
$DIMALTRND
 40
0.0
  9
$DIMAZIN
 70
     0
  9
$DIMDSEP
 70
    46
  9
$DIMATFIT
 70
     3
  9
$DIMFRAC
 70
     0
  9
$DIMLDRBLK
  1

  9
$DIMLUNIT
 70
     2
  9
$DIMLWD
 70
    -2
  9
$DIMLWE
 70
    -2
  9
$DIMTMOVE
 70
     0
  9
$LUNITS
 70
     2
  9
$LUPREC
 70
     2
  9
$SKETCHINC
 40
0.1
  9
$FILLETRAD
 40
0.5
  9
$AUNITS
 70
     0
  9
$AUPREC
 70
     2
  9
$MENU
  1
.
  9
$ELEVATION
 40
0.0
  9
$PELEVATION
 40
0.0
  9
$THICKNESS
 40
0.0
  9
$LIMCHECK
 70
     0
  9
$CHAMFERA
 40
0.0
  9
$CHAMFERB
 40
0.0
  9
$CHAMFERC
 40
0.0
  9
$CHAMFERD
 40
0.0
  9
$SKPOLY
 70
     0
  9
$TDCREATE
 40
2459673.629619722
  9
$TDUCREATE
 40
2459673.837953056
  9
$TDUPDATE
 40
2459673.629621447
  9
$TDUUPDATE
 40
2459673.83795478
  9
$TDINDWG
 40
0.0000000116
  9
$TDUSRTIMER
 40
0.0000000116
  9
$USRTIMER
 70
     1
  9
$ANGBASE
 50
0.0
  9
$ANGDIR
 70
     0
  9
$PDMODE
 70
     0
  9
$PDSIZE
 40
-1.0
  9
$PLINEWID
 40
0.0
  9
$SPLFRAME
 70
     0
  9
$SPLINETYPE
 70
     6
  9
$SPLINESEGS
 70
     8
  9
$HANDSEED
  5
178
  9
$SURFTAB1
 70
     6
  9
$SURFTAB2
 70
     6
  9
$SURFTYPE
 70
     6
  9
$SURFU
 70
     6
  9
$SURFV
 70
     6
  9
$UCSBASE
  2

  9
$UCSNAME
  2

  9
$UCSORG
 10
0.0
 20
0.0
 30
0.0
  9
$UCSXDIR
 10
1.0
 20
0.0
 30
0.0
  9
$UCSYDIR
 10
0.0
 20
1.0
 30
0.0
  9
$UCSORTHOREF
  2

  9
$UCSORTHOVIEW
 70
     0
  9
$UCSORGTOP
 10
0.0
 20
0.0
 30
0.0
  9
$UCSORGBOTTOM
 10
0.0
 20
0.0
 30
0.0
  9
$UCSORGLEFT
 10
0.0
 20
0.0
 30
0.0
  9
$UCSORGRIGHT
 10
0.0
 20
0.0
 30
0.0
  9
$UCSORGFRONT
 10
0.0
 20
0.0
 30
0.0
  9
$UCSORGBACK
 10
0.0
 20
0.0
 30
0.0
  9
$PUCSBASE
  2

  9
$PUCSNAME
  2

  9
$PUCSORG
 10
0.0
 20
0.0
 30
0.0
  9
$PUCSXDIR
 10
1.0
 20
0.0
 30
0.0
  9
$PUCSYDIR
 10
0.0
 20
1.0
 30
0.0
  9
$PUCSORTHOREF
  2

  9
$PUCSORTHOVIEW
 70
     0
  9
$PUCSORGTOP
 10
0.0
 20
0.0
 30
0.0
  9
$PUCSORGBOTTOM
 10
0.0
 20
0.0
 30
0.0
  9
$PUCSORGLEFT
 10
0.0
 20
0.0
 30
0.0
  9
$PUCSORGRIGHT
 10
0.0
 20
0.0
 30
0.0
  9
$PUCSORGFRONT
 10
0.0
 20
0.0
 30
0.0
  9
$PUCSORGBACK
 10
0.0
 20
0.0
 30
0.0
  9
$USERI1
 70
     0
  9
$USERI2
 70
     0
  9
$USERI3
 70
     0
  9
$USERI4
 70
     0
  9
$USERI5
 70
     0
  9
$USERR1
 40
0.0
  9
$USERR2
 40
0.0
  9
$USERR3
 40
0.0
  9
$USERR4
 40
0.0
  9
$USERR5
 40
0.0
  9
$WORLDVIEW
 70
     1
  9
$SHADEDGE
 70
     3
  9
$SHADEDIF
 70
    70
  9
$TILEMODE
 70
     1
  9
$MAXACTVP
 70
    64
  9
$PINSBASE
 10
0.0
 20
0.0
 30
0.0
  9
$PLIMCHECK
 70
     0
  9
$PEXTMIN
 10
1.0000000000E+20
 20
1.0000000000E+20
 30
1.0000000000E+20
  9
$PEXTMAX
 10
-1.0000000000E+20
 20
-1.0000000000E+20
 30
-1.0000000000E+20
  9
$PLIMMIN
 10
0.0
 20
0.0
  9
$PLIMMAX
 10
12.0
 20
9.0
  9
$UNITMODE
 70
     0
  9
$VISRETAIN
 70
     1
  9
$PLINEGEN
 70
     0
  9
$PSLTSCALE
 70
     1
  9
$TREEDEPTH
 70
  3020
  9
$CMLSTYLE
  2
Standard
  9
$CMLJUST
 70
     0
  9
$CMLSCALE
 40
1.0
  9
$PROXYGRAPHICS
 70
     1
  9
$MEASUREMENT
 70
     0
  9
$CELWEIGHT
370
    -1
  9
$ENDCAPS
280
     0
  9
$JOINSTYLE
280
     0
  9
$LWDISPLAY
290
     1
  9
$INSUNITS
 70
     1
  9
$HYPERLINKBASE
  1

  9
$STYLESHEET
  1

  9
$XEDIT
290
     1
  9
$CEPSNTYPE
380
     0
  9
$PSTYLEMODE
290
     1
  9
$FINGERPRINTGUID
  2
{EE1B218A-07F9-4591-B1C3-FCFE238F8EBC}
  9
$VERSIONGUID
  2
{FAEB1C32-E019-11D5-929B-00C0DF256EC4}
  9
$EXTNAMES
290
     1
  9
$PSVPSCALE
 40
0.0
  9
$OLESTARTUP
290
     0
  0
ENDSEC
  0
SECTION
  2
CLASSES
  0
CLASS
  1
ACDBDICTIONARYWDFLT
  2
AcDbDictionaryWithDefault
  3
ObjectDBX Classes
 90
        0
280
     0
281
     0
  0
CLASS
  1
VISUALSTYLE
  2
AcDbVisualStyle
  3
ObjectDBX Classes
 90
     4095
280
     0
281
     0
  0
CLASS
  1
MATERIAL
  2
AcDbMaterial
  3
ObjectDBX Classes
 90
     1153
280
     0
281
     0
  0
CLASS
  1
SCALE
  2
AcDbScale
  3
ObjectDBX Classes
 90
     1153
280
     0
281
     0
  0
CLASS
  1
TABLESTYLE
  2
AcDbTableStyle
  3
ObjectDBX Classes
 90
     4095
280
     0
281
     0
  0
CLASS
  1
MLEADERSTYLE
  2
AcDbMLeaderStyle
  3
ACDB_MLEADERSTYLE_CLASS
 90
     4095
280
     0
281
     0
  0
CLASS
  1
SUN
  2
AcDbSun
  3
SCENEOE
 90
     1153
280
     0
281
     0
  0
CLASS
  1
ACDBPLACEHOLDER
  2
AcDbPlaceHolder
  3
ObjectDBX Classes
 90
        0
280
     0
281
     0
  0
CLASS
  1
LAYOUT
  2
AcDbLayout
  3
ObjectDBX Classes
 90
        0
280
     0
281
     0
  0
ENDSEC
  0
SECTION
  2
TABLES
  0
TABLE
  2
VPORT
  5
8
330
0
100
AcDbSymbolTable
 70
     1
  0
VPORT
  5
29
330
8
100
AcDbSymbolTableRecord
100
AcDbViewportTableRecord
  2
*Active
 70
     0
 10
0.0
 20
0.0
 11
1.0
 21
1.0
 12
8.5
 22
5.5
 13
0.0
 23
0.0
 14
0.5
 24
0.5
 15
0.5
 25
0.5
 16
0.0
 26
0.0
 36
1.0
 17
0.0
 27
0.0
 37
0.0
 40
11.0
 41
1.5454545455
 42
50.0
 43
0.0
 44
0.0
 50
0.0
 51
0.0
 71
     0
 72
  2000
 73
     1
 74
     3
 75
     0
 76
     0
 77
     0
 78
     0
281
     0
 65
     1
110
0.0
120
0.0
130
0.0
111
1.0
121
0.0
131
0.0
112
0.0
122
1.0
132
0.0
 79
     0
146
0.0
  0
ENDTAB
  0
TABLE
  2
LTYPE
  5
5
330
0
100
AcDbSymbolTable
 70
     6
  0
LTYPE
  5
14
330
5
100
AcDbSymbolTableRecord
100
AcDbLinetypeTableRecord
  2
ByBlock
 70
     0
  3

 72
    65
 73
     0
 40
0.0
  0
LTYPE
  5
15
330
5
100
AcDbSymbolTableRecord
100
AcDbLinetypeTableRecord
  2
ByLayer
 70
     0
  3

 72
    65
 73
     0
 40
0.0
  0
LTYPE
  5
16
330
5
100
AcDbSymbolTableRecord
100
AcDbLinetypeTableRecord
  2
Continuous
 70
     0
  3
Solid line
 72
    65
 73
     0
 40
0.0
  0
LTYPE
  5
6E
330
5
100
AcDbSymbolTableRecord
100
AcDbLinetypeTableRecord
  2
HIDDEN
 70
     0
  3
Hidden __ __ __ __ __ __ __ __ __ __ __ __ __ __
 72
    65
 73
     2
 40
0.075
 49
0.05
 74
     0
 49
-0.025
 74
     0
  0
LTYPE
  5
6F
330
5
100
AcDbSymbolTableRecord
100
AcDbLinetypeTableRecord
  2
PHANTOM
 70
     0
  3
Phantom ______  __  __  ______  __  __  ______
 72
    65
 73
     6
 40
0.5
 49
0.25
 74
     0
 49
-0.05
 74
     0
 49
0.05
 74
     0
 49
-0.05
 74
     0
 49
0.05
 74
     0
 49
-0.05
 74
     0
  0
LTYPE
  5
70
330
5
100
AcDbSymbolTableRecord
100
AcDbLinetypeTableRecord
  2
CENTER
 70
     0
  3
Center ____ _ ____ _ ____ _ ____ _ ____ _ ____
 72
    65
 73
     4
 40
0.4
 49
0.25
 74
     0
 49
-0.05
 74
     0
 49
0.05
 74
     0
 49
-0.05
 74
     0
  0
LTYPE
  5
71
330
5
100
AcDbSymbolTableRecord
100
AcDbLinetypeTableRecord
  2
CENTERX2
 70
     0
  3
Center (2x) ________  __  ________  __  _____
 72
    65
 73
     4
 40
0.8
 49
0.5
 74
     0
 49
-0.1
 74
     0
 49
0.1
 74
     0
 49
-0.1
 74
     0
  0
LTYPE
  5
72
330
5
100
AcDbSymbolTableRecord
100
AcDbLinetypeTableRecord
  2
DOT2
 70
     0
  3
Dot (.5x) ........................................
 72
    65
 73
     2
 40
0.025
 49
0.0
 74
     0
 49
-0.025
 74
     0
  0
ENDTAB
  0
TABLE
  2
LAYER
  5
2
330
0
100
AcDbSymbolTable
 70
     2
  0
LAYER
  5
10
330
2
100
AcDbSymbolTableRecord
100
AcDbLayerTableRecord
  2
0
 70
     0
 62
     7
  6
Continuous
370
    -3
390
F
  0
LAYER
  5
73
330
2
100
AcDbSymbolTableRecord
100
AcDbLayerTableRecord
  2
FORMAT
 70
     0
 62
     7
  6
Continuous
370
    -3
390
F
  0
ENDTAB
  0
TABLE
  2
STYLE
  5
3
330
0
100
AcDbSymbolTable
 70
     4
  0
STYLE
  5
11
330
3
100
AcDbSymbolTableRecord
100
AcDbTextStyleTableRecord
  2
Standard
 70
     0
 40
0.0
 41
1.0
 50
0.0
 71
     0
 42
0.125
  3
txt
  4

  0
STYLE
  5
A4
330
3
100
AcDbSymbolTableRecord
100
AcDbTextStyleTableRecord
  2
SLDTEXTSTYLE0
 70
     0
 40
0.0
 41
0.75
 50
0.0
 71
     0
 42
0.125
  3
TXT
  4

  0
STYLE
  5
BB
330
3
100
AcDbSymbolTableRecord
100
AcDbTextStyleTableRecord
  2
SLDTEXTSTYLE1
 70
     0
 40
0.0
 41
0.6875
 50
0.0
 71
     0
 42
0.125
  3
TXT
  4

  0
STYLE
  5
C1
330
3
100
AcDbSymbolTableRecord
100
AcDbTextStyleTableRecord
  2
SLDTEXTSTYLE2
 70
     0
 40
0.0
 41
0.6944444444
 50
0.0
 71
     0
 42
0.125
  3
TXT
  4

  0
ENDTAB
  0
TABLE
  2
VIEW
  5
6
330
0
100
AcDbSymbolTable
 70
     0
  0
ENDTAB
  0
TABLE
  2
UCS
  5
7
330
0
100
AcDbSymbolTable
 70
     0
  0
ENDTAB
  0
TABLE
  2
APPID
  5
9
330
0
100
AcDbSymbolTable
 70
     1
  0
APPID
  5
12
330
9
100
AcDbSymbolTableRecord
100
AcDbRegAppTableRecord
  2
ACAD
 70
     0
  0
ENDTAB
  0
TABLE
  2
DIMSTYLE
  5
A
330
0
100
AcDbSymbolTable
 70
     1
100
AcDbDimStyleTable
  0
DIMSTYLE
105
27
330
A
100
AcDbSymbolTableRecord
100
AcDbDimStyleTableRecord
  2
Standard
 70
     0
178
     0
340
11
  0
ENDTAB
  0
TABLE
  2
BLOCK_RECORD
  5
1
330
0
100
AcDbSymbolTable
 70
     5
  0
BLOCK_RECORD
  5
1F
330
1
100
AcDbSymbolTableRecord
100
AcDbBlockTableRecord
  2
*Model_Space
340
22
  0
BLOCK_RECORD
  5
1B
330
1
100
AcDbSymbolTableRecord
100
AcDbBlockTableRecord
  2
*Paper_Space
340
1E
  0
BLOCK_RECORD
  5
23
330
1
100
AcDbSymbolTableRecord
100
AcDbBlockTableRecord
  2
*Paper_Space0
340
26
  0
BLOCK_RECORD
  5
B1
330
1
100
AcDbSymbolTableRecord
100
AcDbBlockTableRecord
  2
SW_NOTE_0
340
0
102
{BLKREFS
331
B8
102
}
  0
BLOCK_RECORD
  5
D0
330
1
100
AcDbSymbolTableRecord
100
AcDbBlockTableRecord
  2
SW_NOTE_1
340
0
102
{BLKREFS
331
D5
102
}
  0
BLOCK_RECORD
  5
D6
330
1
100
AcDbSymbolTableRecord
100
AcDbBlockTableRecord
  2
SW_NOTE_2
340
0
102
{BLKREFS
331
E5
102
}
  0
BLOCK_RECORD
  5
EA
330
1
100
AcDbSymbolTableRecord
100
AcDbBlockTableRecord
  2
SW_NOTE_3
340
0
102
{BLKREFS
331
F4
102
}
  0
ENDTAB
  0
ENDSEC
  0
SECTION
  2
BLOCKS
  0
BLOCK
  5
20
330
1F
100
AcDbEntity
  8
0
100
AcDbBlockBegin
  2
*Model_Space
 70
     0
 10
0.0
 20
0.0
 30
0.0
  3
*Model_Space
  1

  0
ENDBLK
  5
21
330
1F
100
AcDbEntity
  8
0
100
AcDbBlockEnd
  0
BLOCK
  5
1C
330
1B
100
AcDbEntity
 67
     1
  8
0
100
AcDbBlockBegin
  2
*Paper_Space
 70
     0
 10
0.0
 20
0.0
 30
0.0
  3
*Paper_Space
  1

  0
ENDBLK
  5
1D
330
1B
100
AcDbEntity
 67
     1
  8
0
100
AcDbBlockEnd
  0
BLOCK
  5
24
330
23
100
AcDbEntity
  8
0
100
AcDbBlockBegin
  2
*Paper_Space0
 70
     0
 10
0.0
 20
0.0
 30
0.0
  3
*Paper_Space0
  1

  0
ENDBLK
  5
25
330
23
100
AcDbEntity
  8
0
100
AcDbBlockEnd
  0
BLOCK
  5
B2
330
B1
100
AcDbEntity
  8
0
100
AcDbBlockBegin
  2
SW_NOTE_0
 70
     0
 10
0.0
 20
0.0
 30
0.0
  3
SW_NOTE_0
  1

  0
MTEXT
  5
B4
330
B1
100
AcDbEntity
  8
0
  6
Continuous
 62
     0
370
     0
100
AcDbMText
 10
0.96875
 20
0.3222669349
 30
0.0
 40
0.25
 41
0.0
 71
     2
 72
     1
  1
Jan 18 2017,
  7
SLDTEXTSTYLE0
 73
     1
 44
1.0
  0
MTEXT
  5
B5
330
B1
100
AcDbEntity
  8
0
  6
Continuous
 62
     0
370
     0
100
AcDbMText
 10
0.9575304637
 20
0.0028224852
 30
0.0
 40
0.25
 41
0.0
 71
     2
 72
     1
  1
Adjust trigger
  7
SLDTEXTSTYLE0
 73
     1
 44
1.0
  0
MTEXT
  5
B6
330
B1
100
AcDbEntity
  8
0
  6
Continuous
 62
     0
370
     0
100
AcDbMText
 10
0.9740669958
 20
-0.3166219646
 30
0.0
 40
0.25
 41
0.0
 71
     2
 72
     1
  1
slot depth, belt
  7
SLDTEXTSTYLE0
 73
     1
 44
1.0
  0
MTEXT
  5
B7
330
B1
100
AcDbEntity
  8
0
  6
Continuous
 62
     0
370
     0
100
AcDbMText
 10
0.9661242219
 20
-0.6360664143
 30
0.0
 40
0.25
 41
0.0
 71
     2
 72
     1
  1
clip
  7
SLDTEXTSTYLE0
 73
     1
 44
1.0
  0
ENDBLK
  5
B3
330
B1
100
AcDbEntity
  8
0
100
AcDbBlockEnd
  0
BLOCK
  5
D1
330
D0
100
AcDbEntity
  8
0
100
AcDbBlockBegin
  2
SW_NOTE_1
 70
     0
 10
0.0
 20
0.0
 30
0.0
  3
SW_NOTE_1
  1

  0
MTEXT
  5
D3
330
D0
100
AcDbEntity
  8
0
  6
Continuous
 62
     0
370
     0
100
AcDbMText
 10
0.0
 20
0.0773440644
 30
0.0
 40
0.06
 41
0.0
 71
     1
 72
     1
  1
INTERPRET GEOMETRIC
  7
SLDTEXTSTYLE0
 73
     1
 44
1.0
  0
MTEXT
  5
D4
330
D0
100
AcDbEntity
  8
0
  6
Continuous
 62
     0
370
     0
100
AcDbMText
 10
0.0
 20
-0.0220260102
 30
0.0
 40
0.06
 41
0.0
 71
     1
 72
     1
  1
TOLERANCING PER:
  7
SLDTEXTSTYLE0
 73
     1
 44
1.0
  0
ENDBLK
  5
D2
330
D0
100
AcDbEntity
  8
0
100
AcDbBlockEnd
  0
BLOCK
  5
D7
330
D6
100
AcDbEntity
  8
0
100
AcDbBlockBegin
  2
SW_NOTE_2
 70
     0
 10
0.0
 20
0.0
 30
0.0
  3
SW_NOTE_2
  1

  0
MTEXT
  5
D9
330
D6
100
AcDbEntity
  8
0
  6
Continuous
 62
     0
370
     0
100
AcDbMText
 10
0.0
 20
0.0837894031
 30
0.0
 40
0.065
 41
0.0
 71
     1
 72
     1
  1
DIMENSIONS ARE IN INCHES
  7
SLDTEXTSTYLE0
 73
     1
 44
1.0
  0
MTEXT
  5
DA
330
D6
100
AcDbEntity
  8
0
  6
Continuous
 62
     0
370
     0
100
AcDbMText
 10
0.0
 20
-0.0205806729
 30
0.0
 40
0.065
 41
0.0
 71
     1
 72
     1
  1
TOLERANCES:
  7
SLDTEXTSTYLE0
 73
     1
 44
1.0
  0
MTEXT
  5
DB
330
D6
100
AcDbEntity
  8
0
  6
Continuous
 62
     0
370
     0
100
AcDbMText
 10
0.0
 20
-0.1249507489
 30
0.0
 40
0.065
 41
0.0
 71
     1
 72
     1
  1
FRACTIONAL
  7
SLDTEXTSTYLE0
 73
     1
 44
1.0
  0
MTEXT
  5
DC
330
D6
100
AcDbEntity
  8
0
  6
Continuous
 62
     0
370
     0
100
AcDbMText
 10
0.5175850508
 20
-0.1249507489
 30
0.0
 40
0.065
 41
0.0
 71
     1
 72
     1
  1
%%p
  7
SLDTEXTSTYLE0
 73
     1
 44
1.0
  0
MTEXT
  5
DD
330
D6
100
AcDbEntity
  8
0
  6
Continuous
 62
     0
370
     0
100
AcDbMText
 10
0.0
 20
-0.2293208248
 30
0.0
 40
0.065
 41
0.0
 71
     1
 72
     1
  1
ANGULAR: MACH
  7
SLDTEXTSTYLE0
 73
     1
 44
1.0
  0
MTEXT
  5
DE
330
D6
100
AcDbEntity
  8
0
  6
Continuous
 62
     0
370
     0
100
AcDbMText
 10
0.7233732769
 20
-0.2293208248
 30
0.0
 40
0.065
 41
0.0
 71
     1
 72
     1
  1
%%p
  7
SLDTEXTSTYLE0
 73
     1
 44
1.0
  0
MTEXT
  5
DF
330
D6
100
AcDbEntity
  8
0
  6
Continuous
 62
     0
370
     0
100
AcDbMText
 10
0.9071607683
 20
-0.2293208248
 30
0.0
 40
0.065
 41
0.0
 71
     1
 72
     1
  1
BEND
  7
SLDTEXTSTYLE0
 73
     1
 44
1.0
  0
MTEXT
  5
E0
330
D6
100
AcDbEntity
  8
0
  6
Continuous
 62
     0
370
     0
100
AcDbMText
 10
1.1478412867
 20
-0.2293208248
 30
0.0
 40
0.065
 41
0.0
 71
     1
 72
     1
  1
%%p
  7
SLDTEXTSTYLE0
 73
     1
 44
1.0
  0
MTEXT
  5
E1
330
D6
100
AcDbEntity
  8
0
  6
Continuous
 62
     0
370
     0
100
AcDbMText
 10
0.0
 20
-0.3336909008
 30
0.0
 40
0.065
 41
0.0
 71
     1
 72
     1
  1
TWO PLACE DECIMAL
  7
SLDTEXTSTYLE0
 73
     1
 44
1.0
  0
MTEXT
  5
E2
330
D6
100
AcDbEntity
  8
0
  6
Continuous
 62
     0
370
     0
100
AcDbMText
 10
0.9794349188
 20
-0.3336909008
 30
0.0
 40
0.065
 41
0.0
 71
     1
 72
     1
  1
%%p
  7
SLDTEXTSTYLE0
 73
     1
 44
1.0
  0
MTEXT
  5
E3
330
D6
100
AcDbEntity
  8
0
  6
Continuous
 62
     0
370
     0
100
AcDbMText
 10
0.0
 20
-0.4380609768
 30
0.0
 40
0.065
 41
0.0
 71
     1
 72
     1
  1
THREE PLACE DECIMAL
  7
SLDTEXTSTYLE0
 73
     1
 44
1.0
  0
MTEXT
  5
E4
330
D6
100
AcDbEntity
  8
0
  6
Continuous
 62
     0
370
     0
100
AcDbMText
 10
0.9738037905
 20
-0.4380609768
 30
0.0
 40
0.065
 41
0.0
 71
     1
 72
     1
  1
%%p
  7
SLDTEXTSTYLE0
 73
     1
 44
1.0
  0
ENDBLK
  5
D8
330
D6
100
AcDbEntity
  8
0
100
AcDbBlockEnd
  0
BLOCK
  5
EB
330
EA
100
AcDbEntity
  8
0
100
AcDbBlockBegin
  2
SW_NOTE_3
 70
     0
 10
0.0
 20
0.0
 30
0.0
  3
SW_NOTE_3
  1

  0
MTEXT
  5
ED
330
EA
100
AcDbEntity
  8
0
  6
Continuous
 62
     0
370
     0
100
AcDbMText
 10
0.0
 20
0.0773440644
 30
0.0
 40
0.06
 41
0.0
 71
     1
 72
     1
  1
THE INFORMATION CONTAINED IN THIS
  7
SLDTEXTSTYLE0
 73
     1
 44
1.0
  0
MTEXT
  5
EE
330
EA
100
AcDbEntity
  8
0
  6
Continuous
 62
     0
370
     0
100
AcDbMText
 10
0.0
 20
-0.0220260102
 30
0.0
 40
0.06
 41
0.0
 71
     1
 72
     1
  1
DRAWING IS THE SOLE PROPERTY OF
  7
SLDTEXTSTYLE0
 73
     1
 44
1.0
  0
MTEXT
  5
EF
330
EA
100
AcDbEntity
  8
0
  6
Continuous
 62
     0
370
     0
100
AcDbMText
 10
0.0
 20
-0.1213960848
 30
0.0
 40
0.06
 41
0.0
 71
     1
 72
     1
  1
<INSERT COMPANY NAME HERE>.  ANY
  7
SLDTEXTSTYLE0
 73
     1
 44
1.0
  0
MTEXT
  5
F0
330
EA
100
AcDbEntity
  8
0
  6
Continuous
 62
     0
370
     0
100
AcDbMText
 10
0.0
 20
-0.2207661593
 30
0.0
 40
0.06
 41
0.0
 71
     1
 72
     1
  1
REPRODUCTION IN PART OR AS A WHOLE
  7
SLDTEXTSTYLE0
 73
     1
 44
1.0
  0
MTEXT
  5
F1
330
EA
100
AcDbEntity
  8
0
  6
Continuous
 62
     0
370
     0
100
AcDbMText
 10
0.0
 20
-0.3201362339
 30
0.0
 40
0.06
 41
0.0
 71
     1
 72
     1
  1
WITHOUT THE WRITTEN PERMISSION OF
  7
SLDTEXTSTYLE0
 73
     1
 44
1.0
  0
MTEXT
  5
F2
330
EA
100
AcDbEntity
  8
0
  6
Continuous
 62
     0
370
     0
100
AcDbMText
 10
0.0
 20
-0.4195063085
 30
0.0
 40
0.06
 41
0.0
 71
     1
 72
     1
  1
<INSERT COMPANY NAME HERE> IS
  7
SLDTEXTSTYLE0
 73
     1
 44
1.0
  0
MTEXT
  5
F3
330
EA
100
AcDbEntity
  8
0
  6
Continuous
 62
     0
370
     0
100
AcDbMText
 10
0.0
 20
-0.518876383
 30
0.0
 40
0.06
 41
0.0
 71
     1
 72
     1
  1
PROHIBITED.
  7
SLDTEXTSTYLE0
 73
     1
 44
1.0
  0
ENDBLK
  5
EC
330
EA
100
AcDbEntity
  8
0
100
AcDbBlockEnd
  0
ENDSEC
  0
SECTION
  2
ENTITIES
  0
LINE
  5
74
330
1F
100
AcDbEntity
  8
0
  6
Continuous
 62
     7
370
     0
100
AcDbLine
 10
16.5
 20
2.4643479659
 30
0.0
 11
16.5
 21
0.5
 31
0.0
  0
LINE
  5
75
330
1F
100
AcDbEntity
  8
0
  6
Continuous
 62
     7
370
     0
100
AcDbLine
 10
16.5
 20
0.5
 30
0.0
 11
7.0538982943
 21
0.5
 31
0.0
  0
LINE
  5
76
330
1F
100
AcDbEntity
  8
0
  6
Continuous
 62
     7
100
AcDbLine
 10
0.5
 20
10.5
 30
0.0
 11
0.5
 21
0.5
 31
0.0
  0
LINE
  5
77
330
1F
100
AcDbEntity
  8
0
  6
Continuous
 62
     7
100
AcDbLine
 10
0.5
 20
0.5
 30
0.0
 11
16.5
 21
0.5
 31
0.0
  0
LINE
  5
78
330
1F
100
AcDbEntity
  8
0
  6
Continuous
 62
     7
100
AcDbLine
 10
16.5
 20
0.5
 30
0.0
 11
16.5
 21
10.5
 31
0.0
  0
LINE
  5
79
330
1F
100
AcDbEntity
  8
0
  6
Continuous
 62
     7
100
AcDbLine
 10
16.5
 20
10.5
 30
0.0
 11
0.5
 21
10.5
 31
0.0
  0
LINE
  5
7A
330
1F
100
AcDbEntity
  8
0
  6
Continuous
 62
     7
100
AcDbLine
 10
8.5
 20
10.5
 30
0.0
 11
8.5
 21
10.875
 31
0.0
  0
LINE
  5
7B
330
1F
100
AcDbEntity
  8
0
  6
Continuous
 62
     7
100
AcDbLine
 10
16.5
 20
5.5
 30
0.0
 11
16.875
 21
5.5
 31
0.0
  0
LINE
  5
7C
330
1F
100
AcDbEntity
  8
0
  6
Continuous
 62
     7
100
AcDbLine
 10
8.5
 20
0.5
 30
0.0
 11
8.5
 21
0.125
 31
0.0
  0
LINE
  5
7D
330
1F
100
AcDbEntity
  8
0
  6
Continuous
 62
     7
100
AcDbLine
 10
0.5
 20
5.5
 30
0.0
 11
0.125
 21
5.5
 31
0.0
  0
LINE
  5
7E
330
1F
100
AcDbEntity
  8
0
  6
Continuous
 62
     7
370
     0
100
AcDbLine
 10
10.6682571288
 20
0.5
 30
0.0
 11
10.6682571288
 21
2.4643479659
 31
0.0
  0
LINE
  5
7F
330
1F
100
AcDbEntity
  8
0
  6
Continuous
 62
     7
370
     0
100
AcDbLine
 10
8.6911075579
 20
2.4643479659
 30
0.0
 11
16.5
 21
2.4643479659
 31
0.0
  0
LINE
  5
80
330
1F
100
AcDbEntity
  8
0
  6
Continuous
 62
     7
370
     0
100
AcDbLine
 10
12.0452023081
 20
2.4643479659
 30
0.0
 11
12.0452023081
 21
0.5
 31
0.0
  0
LINE
  5
81
330
1F
100
AcDbEntity
  8
0
  6
Continuous
 62
     7
370
     0
100
AcDbLine
 10
13.7412800044
 20
2.4643479659
 30
0.0
 11
13.7412800044
 21
0.5
 31
0.0
  0
LINE
  5
82
330
1F
100
AcDbEntity
  8
0
  6
Continuous
 62
     7
370
     0
100
AcDbLine
 10
13.7412800044
 20
0.7128858394
 30
0.0
 11
16.5
 21
0.7128858394
 31
0.0
  0
LINE
  5
83
330
1F
100
AcDbEntity
  8
0
  6
Continuous
 62
     7
370
     0
100
AcDbLine
 10
13.7412800044
 20
1.2198630749
 30
0.0
 11
16.5
 21
1.2198630749
 31
0.0
  0
LINE
  5
84
330
1F
100
AcDbEntity
  8
0
  6
Continuous
 62
     7
370
     0
100
AcDbLine
 10
13.7412800044
 20
2.0971972001
 30
0.0
 11
16.5
 21
2.0971972001
 31
0.0
  0
LINE
  5
85
330
1F
100
AcDbEntity
  8
0
  6
Continuous
 62
     7
370
     0
100
AcDbLine
 10
14.136824752
 20
1.2198630749
 30
0.0
 11
14.136824752
 21
0.7128858394
 31
0.0
  0
LINE
  5
86
330
1F
100
AcDbEntity
  8
0
  6
Continuous
 62
     7
370
     0
100
AcDbLine
 10
14.5644165176
 20
0.7128858394
 30
0.0
 11
14.5644165176
 21
0.5
 31
0.0
  0
LINE
  5
87
330
1F
100
AcDbEntity
  8
0
  6
Continuous
 62
     7
370
     0
100
AcDbLine
 10
15.9280647045
 20
1.2198630749
 30
0.0
 11
15.9280647045
 21
0.7128858394
 31
0.0
  0
LINE
  5
88
330
1F
100
AcDbEntity
  8
0
  6
Continuous
 62
     7
370
     0
100
AcDbLine
 10
15.5363286631
 20
0.7128858394
 30
0.0
 11
15.5363286631
 21
0.5
 31
0.0
  0
LINE
  5
89
330
1F
100
AcDbEntity
  8
0
  6
Continuous
 62
     7
370
     0
100
AcDbLine
 10
8.6911075579
 20
0.6962748291
 30
0.0
 11
12.0452023081
 21
0.6962748291
 31
0.0
  0
LINE
  5
8A
330
1F
100
AcDbEntity
  8
0
  6
Continuous
 62
     7
370
     0
100
AcDbLine
 10
12.0452023081
 20
1.9018479659
 30
0.0
 11
13.7412800044
 21
1.9018479659
 31
0.0
  0
LINE
  5
8B
330
1F
100
AcDbEntity
  8
0
  6
Continuous
 62
     7
370
     0
100
AcDbLine
 10
12.0452023081
 20
2.0893479659
 30
0.0
 11
13.7412800044
 21
2.0893479659
 31
0.0
  0
LINE
  5
8C
330
1F
100
AcDbEntity
  8
0
  6
Continuous
 62
     7
370
     0
100
AcDbLine
 10
12.0452023081
 20
2.2768479659
 30
0.0
 11
13.7412800044
 21
2.2768479659
 31
0.0
  0
LINE
  5
8D
330
1F
100
AcDbEntity
  8
0
  6
Continuous
 62
     7
370
     0
100
AcDbLine
 10
13.7412800044
 20
1.3393479659
 30
0.0
 11
12.0497082514
 21
1.3393479659
 31
0.0
  0
LINE
  5
8E
330
1F
100
AcDbEntity
  8
0
  6
Continuous
 62
     7
370
     0
100
AcDbLine
 10
13.2622310388
 20
2.4643479659
 30
0.0
 11
13.2622310388
 21
1.3393479659
 31
0.0
  0
LINE
  5
8F
330
1F
100
AcDbEntity
  8
0
  6
Continuous
 62
     7
370
     0
100
AcDbLine
 10
12.7937038342
 20
2.4643479659
 30
0.0
 11
12.7937038342
 21
1.3393479659
 31
0.0
  0
LINE
  5
90
330
1F
100
AcDbEntity
  8
0
  6
Continuous
 62
     7
370
     0
100
AcDbLine
 10
10.6682571288
 20
0.9637233598
 30
0.0
 11
12.0452023081
 21
0.9637233598
 31
0.0
  0
LINE
  5
91
330
1F
100
AcDbEntity
  8
0
  6
Continuous
 62
     7
370
     0
100
AcDbLine
 10
10.6682571288
 20
1.2337233598
 30
0.0
 11
12.0497082514
 21
1.2337233598
 31
0.0
  0
LINE
  5
92
330
1F
100
AcDbEntity
  8
0
  6
Continuous
 62
     7
370
     0
100
AcDbLine
 10
8.6911075579
 20
0.5
 30
0.0
 11
8.6911075579
 21
2.4643479659
 31
0.0
  0
LINE
  5
93
330
1F
100
AcDbEntity
  8
0
  6
Continuous
 62
     7
370
     0
100
AcDbLine
 10
8.6911075579
 20
1.2143479659
 30
0.0
 11
10.6682571288
 21
1.2143479659
 31
0.0
  0
LINE
  5
94
330
1F
100
AcDbEntity
  8
0
  6
Continuous
 62
     7
370
     0
100
AcDbLine
 10
8.6911075579
 20
1.4643479659
 30
0.0
 11
10.6682571288
 21
1.4643479659
 31
0.0
  0
LINE
  5
95
330
1F
100
AcDbEntity
  8
0
  6
Continuous
 62
     7
370
     0
100
AcDbLine
 10
8.6911075579
 20
1.7143479659
 30
0.0
 11
10.6682571288
 21
1.7143479659
 31
0.0
  0
LINE
  5
96
330
1F
100
AcDbEntity
  8
0
  6
Continuous
 62
     7
370
     0
100
AcDbLine
 10
8.6911075579
 20
1.9643479659
 30
0.0
 11
10.6682571288
 21
1.9643479659
 31
0.0
  0
LINE
  5
97
330
1F
100
AcDbEntity
  8
0
  6
Continuous
 62
     7
370
     0
100
AcDbLine
 10
9.6890876875
 20
2.4643479659
 30
0.0
 11
9.6890876875
 21
0.6962748291
 31
0.0
  0
LINE
  5
98
330
1F
100
AcDbEntity
  8
0
  6
Continuous
 62
     7
370
     0
100
AcDbLine
 10
12.0452023081
 20
2.3100081789
 30
0.0
 11
10.6682571288
 21
2.3100081789
 31
0.0
  0
LINE
  5
99
330
1F
100
AcDbEntity
  8
0
  6
Continuous
 62
     7
370
     0
100
AcDbLine
 10
13.7412800044
 20
1.7143479659
 30
0.0
 11
12.0452023081
 21
1.7143479659
 31
0.0
  0
LINE
  5
9A
330
1F
100
AcDbEntity
  8
0
  6
Continuous
 62
     7
370
     0
100
AcDbLine
 10
13.7412800044
 20
1.5268479659
 30
0.0
 11
12.0452023081
 21
1.5268479659
 31
0.0
  0
LINE
  5
9B
330
1F
100
AcDbEntity
  8
0
  6
Continuous
 62
     7
370
     0
100
AcDbLine
 10
8.6911075579
 20
2.2143479659
 30
0.0
 11
10.6682571288
 21
2.2143479659
 31
0.0
  0
LINE
  5
9C
330
1F
100
AcDbEntity
  8
0
  6
Continuous
 62
     7
370
     0
100
AcDbLine
 10
10.6682571288
 20
1.5037233598
 30
0.0
 11
12.0497082514
 21
1.5037233598
 31
0.0
  0
LINE
  5
9D
330
1F
100
AcDbEntity
  8
0
  6
Continuous
 62
     7
370
     0
100
AcDbLine
 10
8.6911075579
 20
0.9643479659
 30
0.0
 11
10.6682571288
 21
0.9643479659
 31
0.0
  0
LINE
  5
9E
330
1F
100
AcDbEntity
  8
0
  6
Continuous
 62
     7
370
     0
100
AcDbLine
 10
7.0538982943
 20
0.5
 30
0.0
 11
7.0538982943
 21
1.4143479659
 31
0.0
  0
LINE
  5
9F
330
1F
100
AcDbEntity
  8
0
  6
Continuous
 62
     7
370
     0
100
AcDbLine
 10
8.6911075579
 20
1.4143479659
 30
0.0
 11
7.0538982943
 21
1.4143479659
 31
0.0
  0
LINE
  5
A0
330
1F
100
AcDbEntity
  8
0
  6
Continuous
 62
     7
100
AcDbLine
 10
4.25
 20
0.5
 30
0.0
 11
4.25
 21
0.125
 31
0.0
  0
LINE
  5
A1
330
1F
100
AcDbEntity
  8
0
  6
Continuous
 62
     7
100
AcDbLine
 10
12.75
 20
0.5
 30
0.0
 11
12.75
 21
0.125
 31
0.0
  0
LINE
  5
A2
330
1F
100
AcDbEntity
  8
0
  6
Continuous
 62
     7
100
AcDbLine
 10
12.75
 20
10.5
 30
0.0
 11
12.75
 21
10.875
 31
0.0
  0
LINE
  5
A3
330
1F
100
AcDbEntity
  8
0
  6
Continuous
 62
     7
100
AcDbLine
 10
4.25
 20
10.5
 30
0.0
 11
4.25
 21
10.875
 31
0.0
  0
MTEXT
  5
A5
330
1F
100
AcDbEntity
  8
0
  6
Continuous
 62
     7
370
     0
100
AcDbMText
 10
2.1225833335
 20
0.4057146161
 30
0.0
 40
0.24
 41
0.0
 71
     2
 72
     1
  1
4
  7
SLDTEXTSTYLE0
 73
     1
 44
1.0
  0
MTEXT
  5
A6
330
1F
100
AcDbEntity
  8
0
  6
Continuous
 62
     7
370
     0
100
AcDbMText
 10
0.240416667
 20
2.9031876534
 30
0.0
 40
0.24
 41
0.0
 71
     2
 72
     1
  1
A
  7
SLDTEXTSTYLE0
 73
     1
 44
1.0
  0
MTEXT
  5
A7
330
1F
100
AcDbEntity
  8
0
  6
Continuous
 62
     7
370
     0
100
AcDbMText
 10
14.8725833335
 20
0.4057146161
 30
0.0
 40
0.24
 41
0.0
 71
     2
 72
     1
  1
1
  7
SLDTEXTSTYLE0
 73
     1
 44
1.0
  0
MTEXT
  5
A8
330
1F
100
AcDbEntity
  8
0
  6
Continuous
 62
     7
370
     0
100
AcDbMText
 10
10.6225833335
 20
0.4057146161
 30
0.0
 40
0.24
 41
0.0
 71
     2
 72
     1
  1
2
  7
SLDTEXTSTYLE0
 73
     1
 44
1.0
  0
MTEXT
  5
A9
330
1F
100
AcDbEntity
  8
0
  6
Continuous
 62
     7
370
     0
100
AcDbMText
 10
6.3725833335
 20
0.4057146161
 30
0.0
 40
0.24
 41
0.0
 71
     2
 72
     1
  1
3
  7
SLDTEXTSTYLE0
 73
     1
 44
1.0
  0
MTEXT
  5
AA
330
1F
100
AcDbEntity
  8
0
  6
Continuous
 62
     7
370
     0
100
AcDbMText
 10
0.2481666625
 20
8.4057146161
 30
0.0
 40
0.24
 41
0.0
 71
     2
 72
     1
  1
B
  7
SLDTEXTSTYLE0
 73
     1
 44
1.0
  0
MTEXT
  5
AB
330
1F
100
AcDbEntity
  8
0
  6
Continuous
 62
     7
370
     0
100
AcDbMText
 10
16.7196471332
 20
8.4057146161
 30
0.0
 40
0.24
 41
0.0
 71
     2
 72
     1
  1
B
  7
SLDTEXTSTYLE0
 73
     1
 44
1.0
  0
MTEXT
  5
AC
330
1F
100
AcDbEntity
  8
0
  6
Continuous
 62
     7
370
     0
100
AcDbMText
 10
16.7118971376
 20
2.9031876534
 30
0.0
 40
0.24
 41
0.0
 71
     2
 72
     1
  1
A
  7
SLDTEXTSTYLE0
 73
     1
 44
1.0
  0
MTEXT
  5
AD
330
1F
100
AcDbEntity
  8
0
  6
Continuous
 62
     7
370
     0
100
AcDbMText
 10
10.6225833335
 20
10.8824506112
 30
0.0
 40
0.24
 41
0.0
 71
     2
 72
     1
  1
2
  7
SLDTEXTSTYLE0
 73
     1
 44
1.0
  0
MTEXT
  5
AE
330
1F
100
AcDbEntity
  8
0
  6
Continuous
 62
     7
370
     0
100
AcDbMText
 10
14.8725833335
 20
10.8824506112
 30
0.0
 40
0.24
 41
0.0
 71
     2
 72
     1
  1
1
  7
SLDTEXTSTYLE0
 73
     1
 44
1.0
  0
MTEXT
  5
AF
330
1F
100
AcDbEntity
  8
0
  6
Continuous
 62
     7
370
     0
100
AcDbMText
 10
6.3725833335
 20
10.8824506112
 30
0.0
 40
0.24
 41
0.0
 71
     2
 72
     1
  1
3
  7
SLDTEXTSTYLE0
 73
     1
 44
1.0
  0
MTEXT
  5
B0
330
1F
100
AcDbEntity
  8
0
  6
Continuous
 62
     7
370
     0
100
AcDbMText
 10
2.1225833335
 20
10.8824506112
 30
0.0
 40
0.24
 41
0.0
 71
     2
 72
     1
  1
4
  7
SLDTEXTSTYLE0
 73
     1
 44
1.0
  0
INSERT
  5
B8
330
1F
100
AcDbEntity
  8
0
  6
Continuous
 62
     7
370
     0
100
AcDbBlockReference
  2
SW_NOTE_0
 10
14.1928059822
 20
1.5703193206
 30
0.0
  0
MTEXT
  5
B9
330
1F
100
AcDbEntity
  8
0
  6
Continuous
 62
     7
370
     0
100
AcDbMText
 10
11.3564467586
 20
0.6257720645
 30
0.0
 40
0.0625
 41
0.0
 71
     2
 72
     1
  1
DO NOT SCALE DRAWING
  7
SLDTEXTSTYLE0
 73
     1
 44
1.0
  0
MTEXT
  5
BA
330
1F
100
AcDbEntity
  8
0
  6
Continuous
 62
     7
370
     0
100
AcDbMText
 10
15.0552983565
 20
1.0579889711
 30
0.0
 40
0.25
 41
0.0
 71
     2
 72
     1
  1
handlev5
  7
SLDTEXTSTYLE0
 73
     1
 44
1.0
  0
MTEXT
  5
BC
330
1F
100
AcDbEntity
  8
0
  6
Continuous
 62
     7
370
     0
100
AcDbMText
 10
15.6272008483
 20
0.6603507825
 30
0.0
 40
0.1
 41
0.0
 71
     1
 72
     1
  1
SHEET 1 OF 1
  7
SLDTEXTSTYLE1
 73
     1
 44
1.0
  0
MTEXT
  5
BD
330
1F
100
AcDbEntity
  8
0
  6
Continuous
 62
     7
370
     0
100
AcDbMText
 10
10.7148807858
 20
2.4212222426
 30
0.0
 40
0.07
 41
0.0
 71
     1
 72
     1
  1
UNLESS OTHERWISE SPECIFIED:
  7
SLDTEXTSTYLE0
 73
     1
 44
1.0
  0
MTEXT
  5
BE
330
1F
100
AcDbEntity
  8
0
  6
Continuous
 62
     7
370
     0
100
AcDbMText
 10
13.8286869647
 20
0.6600256172
 30
0.0
 40
0.1
 41
0.0
 71
     1
 72
     1
  1
SCALE: 1:1
  7
SLDTEXTSTYLE0
 73
     1
 44
1.0
  0
MTEXT
  5
BF
330
1F
100
AcDbEntity
  8
0
  6
Continuous
 62
     7
370
     0
100
AcDbMText
 10
14.5724421647
 20
0.6566031637
 30
0.0
 40
0.1
 41
0.0
 71
     1
 72
     1
  1
WEIGHT:
  7
SLDTEXTSTYLE0
 73
     1
 44
1.0
  0
MTEXT
  5
C0
330
1F
100
AcDbEntity
  8
0
  6
Continuous
 62
     7
370
     0
100
AcDbMText
 10
16.0978310983
 20
1.1898931282
 30
0.0
 40
0.1
 41
0.0
 71
     1
 72
     1
  1
REV
  7
SLDTEXTSTYLE0
 73
     1
 44
1.0
  0
MTEXT
  5
C2
330
1F
100
AcDbEntity
  8
0
  6
Continuous
 62
     7
370
     0
100
AcDbMText
 10
14.1685300898
 20
1.1937993586
 30
0.0
 40
0.1
 41
0.0
 71
     1
 72
     1
  1
DWG.  NO.
  7
SLDTEXTSTYLE2
 73
     1
 44
1.0
  0
MTEXT
  5
C3
330
1F
100
AcDbEntity
  8
0
  6
Continuous
 62
     7
370
     0
100
AcDbMText
 10
13.8299212632
 20
1.0521409015
 30
0.0
 40
0.25
 41
0.0
 71
     1
 72
     1
  1
B
  7
SLDTEXTSTYLE0
 73
     1
 44
1.0
  0
MTEXT
  5
C4
330
1F
100
AcDbEntity
  8
0
  6
Continuous
 62
     7
370
     0
100
AcDbMText
 10
13.8220311822
 20
1.1951981776
 30
0.0
 40
0.1
 41
0.0
 71
     1
 72
     1
  1
SIZE
  7
SLDTEXTSTYLE0
 73
     1
 44
1.0
  0
MTEXT
  5
C5
330
1F
100
AcDbEntity
  8
0
  6
Continuous
 62
     7
370
     0
100
AcDbMText
 10
13.7871434177
 20
2.062714942
 30
0.0
 40
0.1
 41
0.0
 71
     1
 72
     1
  1
TITLE:
  7
SLDTEXTSTYLE0
 73
     1
 44
1.0
  0
MTEXT
  5
C6
330
1F
100
AcDbEntity
  8
0
  6
Continuous
 62
     7
370
     0
100
AcDbMText
 10
12.9064504929
 20
2.3985429566
 30
0.0
 40
0.065
 41
0.0
 71
     1
 72
     1
  1
NAME
  7
SLDTEXTSTYLE0
 73
     1
 44
1.0
  0
MTEXT
  5
C7
330
1F
100
AcDbEntity
  8
0
  6
Continuous
 62
     7
370
     0
100
AcDbMText
 10
13.3982240634
 20
2.3968067411
 30
0.0
 40
0.065
 41
0.0
 71
     1
 72
     1
  1
DATE
  7
SLDTEXTSTYLE0
 73
     1
 44
1.0
  0
MTEXT
  5
C8
330
1F
100
AcDbEntity
  8
0
  6
Continuous
 62
     7
370
     0
100
AcDbMText
 10
12.0977877029
 20
1.2956181437
 30
0.0
 40
0.065
 41
0.0
 71
     1
 72
     1
  1
COMMENTS:
  7
SLDTEXTSTYLE0
 73
     1
 44
1.0
  0
MTEXT
  5
C9
330
1F
100
AcDbEntity
  8
0
  6
Continuous
 62
     7
370
     0
100
AcDbMText
 10
12.0969141461
 20
1.4615369972
 30
0.0
 40
0.065
 41
0.0
 71
     1
 72
     1
  1
Q.A.
  7
SLDTEXTSTYLE0
 73
     1
 44
1.0
  0
MTEXT
  5
CA
330
1F
100
AcDbEntity
  8
0
  6
Continuous
 62
     7
370
     0
100
AcDbMText
 10
12.0985384509
 20
1.6474596716
 30
0.0
 40
0.065
 41
0.0
 71
     1
 72
     1
  1
MFG APPR.
  7
SLDTEXTSTYLE0
 73
     1
 44
1.0
  0
MTEXT
  5
CB
330
1F
100
AcDbEntity
  8
0
  6
Continuous
 62
     7
370
     0
100
AcDbMText
 10
12.0935901344
 20
1.8346770078
 30
0.0
 40
0.065
 41
0.0
 71
     1
 72
     1
  1
ENG APPR.
  7
SLDTEXTSTYLE0
 73
     1
 44
1.0
  0
MTEXT
  5
CC
330
1F
100
AcDbEntity
  8
0
  6
Continuous
 62
     7
370
     0
100
AcDbMText
 10
12.0964833951
 20
2.0171967381
 30
0.0
 40
0.065
 41
0.0
 71
     1
 72
     1
  1
CHECKED
  7
SLDTEXTSTYLE0
 73
     1
 44
1.0
  0
MTEXT
  5
CD
330
1F
100
AcDbEntity
  8
0
  6
Continuous
 62
     7
370
     0
100
AcDbMText
 10
12.0943524356
 20
2.2095569525
 30
0.0
 40
0.065
 41
0.0
 71
     1
 72
     1
  1
DRAWN
  7
SLDTEXTSTYLE0
 73
     1
 44
1.0
  0
MTEXT
  5
CE
330
1F
100
AcDbEntity
  8
0
  6
Continuous
 62
     7
370
     0
100
AcDbMText
 10
10.6909330979
 20
0.9424500643
 30
0.0
 40
0.06
 41
0.0
 71
     1
 72
     1
  1
FINISH
  7
SLDTEXTSTYLE0
 73
     1
 44
1.0
  0
MTEXT
  5
CF
330
1F
100
AcDbEntity
  8
0
  6
Continuous
 62
     7
370
     0
100
AcDbMText
 10
10.6881970648
 20
1.210748588
 30
0.0
 40
0.06
 41
0.0
 71
     1
 72
     1
  1
MATERIAL
  7
SLDTEXTSTYLE0
 73
     1
 44
1.0
  0
INSERT
  5
D5
330
1F
100
AcDbEntity
  8
0
  6
Continuous
 62
     7
370
     0
100
AcDbBlockReference
  2
SW_NOTE_1
 10
10.6932656633
 20
1.3725811239
 30
0.0
  0
INSERT
  5
E5
330
1F
100
AcDbEntity
  8
0
  6
Continuous
 62
     7
370
     0
100
AcDbBlockReference
  2
SW_NOTE_2
 10
10.7054069353
 20
2.1128437016
 30
0.0
  0
MTEXT
  5
E6
330
1F
100
AcDbEntity
  8
0
  6
Continuous
 62
     7
370
     0
100
AcDbMText
 10
9.4232130086
 20
0.627936029
 30
0.0
 40
0.0625
 41
0.0
 71
     1
 72
     1
  1
APPLICATION
  7
SLDTEXTSTYLE0
 73
     1
 44
1.0
  0
MTEXT
  5
E7
330
1F
100
AcDbEntity
  8
0
  6
Continuous
 62
     7
370
     0
100
AcDbMText
 10
9.9706337758
 20
0.8581722568
 30
0.0
 40
0.0625
 41
0.0
 71
     1
 72
     1
  1
USED ON
  7
SLDTEXTSTYLE0
 73
     1
 44
1.0
  0
MTEXT
  5
E8
330
1F
100
AcDbEntity
  8
0
  6
Continuous
 62
     7
370
     0
100
AcDbMText
 10
8.9740749536
 20
0.8571363076
 30
0.0
 40
0.0625
 41
0.0
 71
     1
 72
     1
  1
NEXT ASSY
  7
SLDTEXTSTYLE0
 73
     1
 44
1.0
  0
MTEXT
  5
E9
330
1F
100
AcDbEntity
  8
0
  6
Continuous
 62
     7
370
     0
100
AcDbMText
 10
7.2413219489
 20
1.3575940977
 30
0.0
 40
0.06
 41
0.0
 71
     1
 72
     1
  1
PROPRIETARY AND CONFIDENTIAL
  7
SLDTEXTSTYLE0
 73
     1
 44
1.0
  0
INSERT
  5
F4
330
1F
100
AcDbEntity
  8
0
  6
Continuous
 62
     7
370
     0
100
AcDbBlockReference
  2
SW_NOTE_3
 10
7.0926939074
 20
1.1392761214
 30
0.0
  0
SPLINE
  5
F5
330
1F
100
AcDbEntity
  8
0
  6
Continuous
 62
     7
370
    15
100
AcDbSpline
210
0.0
220
0.0
230
1.0
 70
     8
 71
     3
 72
    26
 73
    22
 74
     0
 42
0.000000001
 43
0.00000001
 40
0.0
 40
0.0
 40
0.0
 40
0.0
 40
0.0204129948985168
 40
0.0750048423966959
 40
0.1295975997571549
 40
0.1841907658923161
 40
0.2387844542172556
 40
0.293378778077496
 40
0.3479738506746726
 40
0.4025697849992049
 40
0.4571666937480061
 40
0.511764689224687
 40
0.566363883218761
 40
0.6209643868603049
 40
0.6755663104466166
 40
0.7301697632363505
 40
0.784774853207085
 40
0.8393816867707465
 40
0.8939903684419057
 40
0.9486010004528318
 40
1.0
 40
1.0
 40
1.0
 40
1.0
 10
7.331766420259059
 20
7.261807381866146
 30
0.0
 10
7.317724682775045
 20
7.236317510528195
 30
0.0
 10
7.266130180733565
 20
7.142658358996541
 30
0.0
 10
7.17872591284092
 20
6.979971730567203
 30
0.0
 10
7.070505955802803
 20
6.773397771733022
 30
0.0
 10
6.964835210766943
 20
6.565783362731806
 30
0.0
 10
6.861682325217211
 20
6.35724676950985
 30
0.0
 10
6.761106927969633
 20
6.14785882109646
 30
0.0
 10
6.663142931784765
 20
5.937703257244238
 30
0.0
 10
6.567829892149531
 20
5.726860725977072
 30
0.0
 10
6.475204589412915
 20
5.515413031918104
 30
0.0
 10
6.385303256091996
 20
5.303441956870794
 30
0.0
 10
6.298161003608379
 20
5.091029539906694
 30
0.0
 10
6.213811808816474
 20
4.878257947066276
 30
0.0
 10
6.132289064952396
 20
4.665209523017216
 30
0.0
 10
6.053623317951431
 20
4.451966525372897
 30
0.0
 10
5.977850700292811
 20
4.238611946719858
 30
0.0
 10
5.904981390704164
 20
4.025226303421442
 30
0.0
 10
5.835117282612098
 20
3.811899470899627
 30
0.0
 10
5.769329071659715
 20
3.602868692654101
 30
0.0
 10
5.728299786590694
 20
3.465099129540678
 30
0.0
 10
5.708406648828702
 20
3.398301258366116
 30
0.0
  0
SPLINE
  5
F6
330
1F
100
AcDbEntity
  8
0
  6
Continuous
 62
     7
370
    15
100
AcDbSpline
210
0.0
220
0.0
230
1.0
 70
     8
 71
     3
 72
    11
 73
     7
 74
     0
 42
0.000000001
 43
0.00000001
 40
0.0
 40
0.0
 40
0.0
 40
0.0
 40
0.1416489883401486
 40
0.4848916299611513
 40
0.8373529273827058
 40
1.0
 40
1.0
 40
1.0
 40
1.0
 10
7.334915082667221
 20
8.091362418502305
 30
0.0
 10
7.333030449627485
 20
8.087438134515804
 30
0.0
 10
7.326578989597844
 20
8.074004558456124
 30
0.0
 10
7.319278885108336
 20
8.049591313779553
 30
0.0
 10
7.314022982186079
 20
8.024378273824434
 30
0.0
 10
7.31328696760072
 20
8.009240777245044
 30
0.0
 10
7.313054568702401
 20
8.004461065540482
 30
0.0
  0
SPLINE
  5
F7
330
1F
100
AcDbEntity
  8
0
  6
Continuous
 62
     7
370
    15
100
AcDbSpline
210
0.0
220
0.0
230
1.0
 70
     8
 71
     3
 72
    16
 73
    12
 74
     0
 42
0.000000001
 43
0.00000001
 40
0.0
 40
0.0
 40
0.0
 40
0.0
 40
0.0564800602050832
 40
0.1871690799625359
 40
0.3179930987446997
 40
0.4489295659938972
 40
0.5799491687953668
 40
0.7109985094309932
 40
0.8419893353794811
 40
0.9728205819827974
 40
1.0
 40
1.0
 40
1.0
 40
1.0
 10
7.313101666051495
 20
8.006874590291474
 30
0.0
 10
7.311676141390803
 20
7.995755614785343
 30
0.0
 10
7.30695210005238
 20
7.958908479565376
 30
0.0
 10
7.301421825470631
 20
7.897165582700579
 30
0.0
 10
7.297754645753957
 20
7.822272563930984
 30
0.0
 10
7.297593211071728
 20
7.748916196715431
 30
0.0
 10
7.300889365691717
 20
7.677282232345245
 30
0.0
 10
7.30767360767397
 20
7.607580293147045
 30
0.0
 10
7.318011270104745
 20
7.540071360046148
 30
0.0
 10
7.328079969905559
 20
7.492005823814154
 30
0.0
 10
7.33460120810304
 20
7.466443302607407
 30
0.0
 10
7.335722926433792
 20
7.46204629275291
 30
0.0
  0
LINE
  5
F8
330
1F
100
AcDbEntity
  8
0
  6
Continuous
 62
     7
370
    15
100
AcDbLine
 10
9.5392313169
 20
9.3660658536
 30
0.0
 11
7.3383064425
 21
8.0954989684
 31
0.0
  0
SPLINE
  5
F9
330
1F
100
AcDbEntity
  8
0
  6
Continuous
 62
     7
370
    15
100
AcDbSpline
210
0.0
220
0.0
230
1.0
 70
     8
 71
     3
 72
    16
 73
    12
 74
     0
 42
0.000000001
 43
0.00000001
 40
0.0
 40
0.0
 40
0.0
 40
0.0
 40
0.0666085113403698
 40
0.1983482319665479
 40
0.3274061201301029
 40
0.4556943533825603
 40
0.5843396681344524
 40
0.7140466987485022
 40
0.8450782341557761
 40
0.9774156964094268
 40
1.0
 40
1.0
 40
1.0
 40
1.0
 10
7.338630726562967
 20
7.453420825440103
 30
0.0
 10
7.3395921467658
 20
7.451236561395547
 30
0.0
 10
7.3424550841528
 20
7.444732213787895
 30
0.0
 10
7.346727947192863
 20
7.430804014686227
 30
0.0
 10
7.35038339580367
 20
7.410428527395093
 30
0.0
 10
7.352048761036279
 20
7.386684389057582
 30
0.0
 10
7.351391495150652
 20
7.360011311272024
 30
0.0
 10
7.348203666673387
 20
7.330817422353218
 30
0.0
 10
7.342208481316051
 20
7.29955960690165
 30
0.0
 10
7.336146248458447
 20
7.275990032586046
 30
0.0
 10
7.331944589243377
 20
7.263014737340813
 30
0.0
 10
7.331332076554923
 20
7.261123214833318
 30
0.0
  0
SPLINE
  5
FA
330
1F
100
AcDbEntity
  8
0
  6
Continuous
 62
     7
370
    15
100
AcDbSpline
210
0.0
220
0.0
230
1.0
 70
     8
 71
     3
 72
    16
 73
    12
 74
     0
 42
0.000000001
 43
0.00000001
 40
0.0
 40
0.0
 40
0.0
 40
0.0
 40
0.0310666968277016
 40
0.1852544674812957
 40
0.3171191072481896
 40
0.4388934284156039
 40
0.5553186012286451
 40
0.6788763124004784
 40
0.799575026643346
 40
0.9192632179508963
 40
1.0
 40
1.0
 40
1.0
 40
1.0
 10
7.13308943228909
 20
5.038266065819085
 30
0.0
 10
7.132152748988041
 20
5.038711031145131
 30
0.0
 10
7.126567193269099
 20
5.041364413156795
 30
0.0
 10
7.118471373567391
 20
5.048419700085623
 30
0.0
 10
7.107761891153726
 20
5.060340173006352
 30
0.0
 10
7.098489659849961
 20
5.075063350664528
 30
0.0
 10
7.090139427610139
 20
5.093253591295282
 30
0.0
 10
7.083092618727007
 20
5.115318623109224
 30
0.0
 10
7.077884919580691
 20
5.141440721662092
 30
0.0
 10
7.07513443354039
 20
5.167344866172717
 30
0.0
 10
7.074843684773334
 20
5.185108501036181
 30
0.0
 10
7.074726563042227
 20
5.192264189732817
 30
0.0
  0
SPLINE
  5
FB
330
1F
100
AcDbEntity
  8
0
  6
Continuous
 62
     7
370
    15
100
AcDbSpline
210
0.0
220
0.0
230
1.0
 70
     8
 71
     3
 72
    33
 73
    29
 74
     0
 42
0.000000001
 43
0.00000001
 40
0.0
 40
0.0
 40
0.0
 40
0.0
 40
0.020508526983411
 40
0.0598492964074311
 40
0.0994079562442497
 40
0.1392137547665147
 40
0.1792539718309851
 40
0.2194978134221911
 40
0.2599049651467047
 40
0.3004304551525018
 40
0.3410272589087767
 40
0.381647554195537
 40
0.4222334531517396
 40
0.4627305817049498
 40
0.5030911475018349
 40
0.5432686365184511
 40
0.583219829441244
 40
0.6229086789289497
 40
0.6623131457093393
 40
0.7014366277566181
 40
0.7403264352194121
 40
0.779103173246793
 40
0.8179401476389841
 40
0.8571762545830822
 40
0.8974486879283166
 40
0.9398755651313679
 40
0.9864697092913588
 40
1.0
 40
1.0
 40
1.0
 40
1.0
 10
7.074726563042227
 20
5.192264189732817
 30
0.0
 10
7.074798206171047
 20
5.197973901064167
 30
0.0
 10
7.075007279736193
 20
5.214636346209409
 30
0.0
 10
7.077397206057669
 20
5.244120681500361
 30
0.0
 10
7.082911205563432
 20
5.281039374367896
 30
0.0
 10
7.091324789251669
 20
5.319597571748274
 30
0.0
 10
7.102594403725202
 20
5.359292944380877
 30
0.0
 10
7.116677878088883
 20
5.39966013586681
 30
0.0
 10
7.13346501311259
 20
5.440209230141557
 30
0.0
 10
7.152800983475606
 20
5.480455005223156
 30
0.0
 10
7.174484741599703
 20
5.519918875323717
 30
0.0
 10
7.198272007794415
 20
5.558133774308077
 30
0.0
 10
7.223877902556581
 20
5.594651502434328
 30
0.0
 10
7.25098109507136
 20
5.629051502707297
 30
0.0
 10
7.279229324303365
 20
5.660949868890826
 30
0.0
 10
7.308242011845266
 20
5.690004612634996
 30
0.0
 10
7.337612229269888
 20
5.715921696322908
 30
0.0
 10
7.366911084928753
 20
5.73846425026844
 30
0.0
 10
7.395694157640714
 20
5.757463269749018
 30
0.0
 10
7.423511192576512
 20
5.772829318218853
 30
0.0
 10
7.449921299019992
 20
5.78456509043147
 30
0.0
 10
7.474500717091003
 20
5.792768848515149
 30
0.0
 10
7.496881651959937
 20
5.797653942250868
 30
0.0
 10
7.516803022765706
 20
5.799521183983403
 30
0.0
 10
7.534250634106269
 20
5.798812913715677
 30
0.0
 10
7.549399182214549
 20
5.795589000151844
 30
0.0
 10
7.559522469662852
 20
5.792186153537655
 30
0.0
 10
7.56456698793667
 20
5.788710961123435
 30
0.0
 10
7.565702196922484
 20
5.78792891030274
 30
0.0
  0
SPLINE
  5
FC
330
1F
100
AcDbEntity
  8
0
  6
Continuous
 62
     7
370
    15
100
AcDbSpline
210
0.0
220
0.0
230
1.0
 70
     8
 71
     3
 72
    17
 73
    13
 74
     0
 42
0.000000001
 43
0.00000001
 40
0.0
 40
0.0
 40
0.0
 40
0.0
 40
0.0088711233250792
 40
0.1573537259186945
 40
0.2798798178991366
 40
0.3937894638837503
 40
0.50267906237002
 40
0.6182574283974054
 40
0.7307395129562237
 40
0.8417666452154808
 40
0.952343841723925
 40
1.0
 40
1.0
 40
1.0
 40
1.0
 10
6.693863638416678
 20
3.827896894730647
 30
0.0
 10
6.693473934996855
 20
3.828079551235843
 30
0.0
 10
6.686561474999949
 20
3.831319465799377
 30
0.0
 10
6.676136777009845
 20
3.840042930955215
 30
0.0
 10
6.661867184973723
 20
3.854745352766213
 30
0.0
 10
6.649976305191982
 20
3.871903393448065
 30
0.0
 10
6.639270441163733
 20
3.892440470021438
 30
0.0
 10
6.63004831151064
 20
3.916823268669054
 30
0.0
 10
6.622685924259437
 20
3.945220446890039
 30
0.0
 10
6.617705371028324
 20
3.976683295739863
 30
0.0
 10
6.615607227758224
 20
4.004423423942926
 30
0.0
 10
6.615436855790112
 20
4.021750136445187
 30
0.0
 10
6.615385543767501
 20
4.026968534010834
 30
0.0
  0
SPLINE
  5
FD
330
1F
100
AcDbEntity
  8
0
  6
Continuous
 62
     7
370
    15
100
AcDbSpline
210
0.0
220
0.0
230
1.0
 70
     8
 71
     3
 72
    35
 73
    31
 74
     0
 42
0.000000001
 43
0.00000001
 40
0.0
 40
0.0
 40
0.0
 40
0.0
 40
0.0189041068592099
 40
0.0551698237378128
 40
0.0915846332025497
 40
0.1281673297643439
 40
0.1649144116695181
 40
0.2018094571447194
 40
0.2388288085760947
 40
0.275944970018478
 40
0.3131285561356968
 40
0.3503493328449034
 40
0.387576709991462
 40
0.4247710537090258
 40
0.4619002464804843
 40
0.4989337026087287
 40
0.5358415517908548
 40
0.5725957341138757
 40
0.609172031187718
 40
0.6455535587040198
 40
0.6817364865568833
 40
0.7177391023521181
 40
0.7536158649778414
 40
0.7894687504508112
 40
0.8254346943238162
 40
0.8618047348070789
 40
0.8990600753114096
 40
0.9379804836070889
 40
0.979785204527486
 40
1.0
 40
1.0
 40
1.0
 40
1.0
 10
6.615385543767501
 20
4.026968534010834
 30
0.0
 10
6.61546014881745
 20
4.033420075451851
 30
0.0
 10
6.615677876504152
 20
4.052248280708461
 30
0.0
 10
6.618151617496873
 20
4.085242884193282
 30
0.0
 10
6.623825123760666
 20
4.126293777019102
 30
0.0
 10
6.63244923035222
 20
4.16896522060589
 30
0.0
 10
6.643976010176416
 20
4.212806941643653
 30
0.0
 10
6.658373680648999
 20
4.257407977036597
 30
0.0
 10
6.675552814789779
 20
4.302333401382306
 30
0.0
 10
6.695389269094648
 20
4.347150358384599
 30
0.0
 10
6.717721337079432
 20
4.391428515268003
 30
0.0
 10
6.742353803425025
 20
4.434746337967454
 30
0.0
 10
6.769057802140023
 20
4.476691769186755
 30
0.0
 10
6.797574203605129
 20
4.516869956495097
 30
0.0
 10
6.827616137737387
 20
4.554908396671661
 30
0.0
 10
6.85887388653049
 20
4.590464198912048
 30
0.0
 10
6.891015269179862
 20
4.623225935141509
 30
0.0
 10
6.923687692287939
 20
4.65291858204604
 30
0.0
 10
6.956521223737369
 20
4.67930973236142
 30
0.0
 10
6.989132859998304
 20
4.702216652593854
 30
0.0
 10
7.021132760677525
 20
4.721514130706189
 30
0.0
 10
7.052133411432167
 20
4.737142491954437
 30
0.0
 10
7.081760743022746
 20
4.749114204550624
 30
0.0
 10
7.109659938559469
 20
4.757514221144942
 30
0.0
 10
7.135538635482557
 20
4.76251442762161
 30
0.0
 10
7.159202720603949
 20
4.764339538579324
 30
0.0
 10
7.180672822953539
 20
4.763299135943497
 30
0.0
 10
7.200079990161736
 20
4.759364177110616
 30
0.0
 10
7.214678568465654
 20
4.75447846589636
 30
0.0
 10
7.222386977519832
 20
4.749631157786379
 30
0.0
 10
7.224899475544834
 20
4.748051214121312
 30
0.0
  0
SPLINE
  5
FE
330
1F
100
AcDbEntity
  8
0
  6
Continuous
 62
     7
370
    15
100
AcDbSpline
210
0.0
220
0.0
230
1.0
 70
     8
 71
     3
 72
    22
 73
    18
 74
     0
 42
0.000000001
 43
0.00000001
 40
0.0
 40
0.0
 40
0.0
 40
0.0
 40
0.020446170233946
 40
0.0937552934439511
 40
0.167516369712831
 40
0.2416887256897304
 40
0.3162062742833147
 40
0.390989925972233
 40
0.4659544907700321
 40
0.541012232801434
 40
0.6160730156763754
 40
0.6910197150073762
 40
0.7657635004700181
 40
0.8402167842344707
 40
0.914295646517423
 40
0.9879248721797993
 40
1.0
 40
1.0
 40
1.0
 40
1.0
 10
7.35521756534513
 20
5.728929972282844
 30
0.0
 10
7.354872278508824
 20
5.725600884987284
 30
0.0
 10
7.353288976194023
 20
5.710335456169831
 30
0.0
 10
7.34763719559467
 20
5.681303499751813
 30
0.0
 10
7.338142100171273
 20
5.642304433261215
 30
0.0
 10
7.325582994408556
 20
5.602224008233419
 30
0.0
 10
7.310311427012972
 20
5.561725479904153
 30
0.0
 10
7.292382232024737
 20
5.521247457770042
 30
0.0
 10
7.271991272324438
 20
5.481286793916216
 30
0.0
 10
7.249352740785366
 20
5.442312480261711
 30
0.0
 10
7.224731184347919
 20
5.404788400896273
 30
0.0
 10
7.198426928014239
 20
5.369143356915636
 30
0.0
 10
7.170778267594081
 20
5.335812892390096
 30
0.0
 10
7.142141864920865
 20
5.305053556052587
 30
0.0
 10
7.11293848898473
 20
5.277590683427229
 30
0.0
 10
7.091624362669439
 20
5.259220635914707
 30
0.0
 10
7.080276268854892
 20
5.251107737854152
 30
0.0
 10
7.078677403945956
 20
5.249964688789634
 30
0.0
  0
LINE
  5
FF
330
1F
100
AcDbEntity
  8
0
  6
Continuous
 62
     7
370
    15
100
AcDbLine
 10
8.1638877443
 20
6.4327874267
 30
0.0
 11
8.3744247096
 21
7.1696467982
 31
0.0
  0
SPLINE
  5
100
330
1F
100
AcDbEntity
  8
0
  6
Continuous
 62
     7
370
    15
100
AcDbSpline
210
0.0
220
0.0
230
1.0
 70
     8
 71
     3
 72
    17
 73
    13
 74
     0
 42
0.000000001
 43
0.00000001
 40
0.0
 40
0.0
 40
0.0
 40
0.0
 40
0.0326364152100912
 40
0.145849083008801
 40
0.2614827066738986
 40
0.3794663236770379
 40
0.498851372775041
 40
0.6186240005645032
 40
0.7374787402400325
 40
0.8544546322808624
 40
0.968851585472727
 40
1.0
 40
1.0
 40
1.0
 40
1.0
 10
8.374919188373813
 20
7.171577815104813
 30
0.0
 10
8.375193946801001
 20
7.173251726291431
 30
0.0
 10
8.376421816479597
 20
7.180732278614189
 30
0.0
 10
8.38025784619212
 20
7.195666537733659
 30
0.0
 10
8.387459396626506
 20
7.216299007584777
 30
0.0
 10
8.397150079562802
 20
7.237637337204188
 30
0.0
 10
8.408976224689333
 20
7.25864866140893
 30
0.0
 10
8.422476028307157
 20
7.278392068998166
 30
0.0
 10
8.436981523201633
 20
7.295996510441074
 30
0.0
 10
8.451648646339512
 20
7.310706966033101
 30
0.0
 10
8.462367687949074
 20
7.319499877711758
 30
0.0
 10
8.467838630464366
 20
7.323337609135998
 30
0.0
 10
8.469009476283725
 20
7.324158928640149
 30
0.0
  0
SPLINE
  5
101
330
1F
100
AcDbEntity
  8
0
  6
Continuous
 62
     7
370
    15
100
AcDbSpline
210
0.0
220
0.0
230
1.0
 70
     8
 71
     3
 72
    28
 73
    24
 74
     0
 42
0.000000001
 43
0.00000001
 40
0.0
 40
0.0
 40
0.0
 40
0.0
 40
0.0406434167157309
 40
0.0902764617309104
 40
0.1400848313920035
 40
0.19011577691955
 40
0.240377212025444
 40
0.2908539486818185
 40
0.3415176050881139
 40
0.3923325974765718
 40
0.4432596569826862
 40
0.4942577828016315
 40
0.5452852295549534
 40
0.5962945177758037
 40
0.6472348615040977
 40
0.6980641505464474
 40
0.7487408403612738
 40
0.799225017674052
 40
0.8494804917378108
 40
0.8994785067084629
 40
0.9492039513513116
 40
0.9986653410217083
 40
1.0
 40
1.0
 40
1.0
 40
1.0
 10
7.038133435423325
 20
4.729576270183424
 30
0.0
 10
7.038610568594419
 20
4.720014352715761
 30
0.0
 10
7.039670368629494
 20
4.698775585257282
 30
0.0
 10
7.038074081993056
 20
4.662794112703636
 30
0.0
 10
7.033825021087331
 20
4.622681501348183
 30
0.0
 10
7.026601356867587
 20
4.580716536770784
 30
0.0
 10
7.016479652492573
 20
4.537394772613187
 30
0.0
 10
7.003457414843445
 20
4.493104754359738
 30
0.0
 10
6.98760793641697
 20
4.4482822374533
 30
0.0
 10
6.969035862640641
 20
4.403358748861014
 30
0.0
 10
6.947885929592056
 20
4.358767323278625
 30
0.0
 10
6.92433726636806
 20
4.314934084484869
 30
0.0
 10
6.898602658196622
 20
4.2722760500393
 30
0.0
 10
6.870926984638068
 20
4.231197120265138
 30
0.0
 10
6.841584081670192
 20
4.192081372365724
 30
0.0
 10
6.810872857474232
 20
4.155285943653691
 30
0.0
 10
6.779115741241752
 20
4.12114075314342
 30
0.0
 10
6.746652160157026
 20
4.089928342835172
 30
0.0
 10
6.713857641809843
 20
4.061942475042422
 30
0.0
 10
6.681059431519981
 20
4.037242759066823
 30
0.0
 10
6.648830454976278
 20
4.016531302721702
 30
0.0
 10
6.627188841333836
 20
4.003893951169141
 30
0.0
 10
6.616796196144533
 20
3.999191951892474
 30
0.0
 10
6.616523130865263
 20
3.999068407527952
 30
0.0
  0
LINE
  5
102
330
1F
100
AcDbEntity
  8
0
  6
Continuous
 62
     7
370
    15
100
AcDbLine
 10
8.4636539004
 20
7.3205439221
 30
0.0
 11
9.3096320754
 21
7.8089167273
 31
0.0
  0
SPLINE
  5
103
330
1F
100
AcDbEntity
  8
0
  6
Continuous
 62
     7
370
    15
100
AcDbSpline
210
0.0
220
0.0
230
1.0
 70
     8
 71
     3
 72
     9
 73
     5
 74
     0
 42
0.000000001
 43
0.00000001
 40
0.0
 40
0.0
 40
0.0
 40
0.0
 40
0.519526692578008
 40
1.0
 40
1.0
 40
1.0
 40
1.0
 10
6.043136907328774
 20
2.998295608019806
 30
0.0
 10
6.05056760850417
 20
2.994353941458276
 30
0.0
 10
6.064870436985461
 20
2.986766907687265
 30
0.0
 10
6.080520067925243
 20
2.982769106844392
 30
0.0
 10
6.088039297862813
 20
2.980848270251003
 30
0.0
  0
SPLINE
  5
104
330
1F
100
AcDbEntity
  8
0
  6
Continuous
 62
     7
370
    15
100
AcDbSpline
210
0.0
220
0.0
230
1.0
 70
     8
 71
     3
 72
    13
 73
     9
 74
     0
 42
0.000000001
 43
0.00000001
 40
0.0
 40
0.0
 40
0.0
 40
0.0
 40
0.0690301693976471
 40
0.3181286474515975
 40
0.5352279240935132
 40
0.7432760042024518
 40
0.9503427386556758
 40
1.0
 40
1.0
 40
1.0
 40
1.0
 10
6.256749640826621
 20
3.268372256198269
 30
0.0
 10
6.256354757985464
 20
3.268541184447873
 30
0.0
 10
6.25453492261123
 20
3.269319697901222
 30
0.0
 10
6.252026068079457
 20
3.272013649516631
 30
0.0
 10
6.248010764318693
 20
3.278692040219143
 30
0.0
 10
6.244923860498115
 20
3.288894994600652
 30
0.0
 10
6.243729925185684
 20
3.298852436353174
 30
0.0
 10
6.243663970860996
 20
3.305076151904056
 30
0.0
 10
6.24365121353721
 20
3.306279984326043
 30
0.0
  0
SPLINE
  5
105
330
1F
100
AcDbEntity
  8
0
  6
Continuous
 62
     7
370
    15
100
AcDbSpline
210
0.0
220
0.0
230
1.0
 70
     8
 71
     3
 72
    21
 73
    17
 74
     0
 42
0.000000001
 43
0.00000001
 40
0.0
 40
0.0
 40
0.0
 40
0.0
 40
0.0380120796095664
 40
0.111185088029576
 40
0.1853395027220757
 40
0.2604529647022515
 40
0.3362098310857046
 40
0.4122232528848184
 40
0.4880267318007684
 40
0.5631533853589301
 40
0.6372419875906168
 40
0.7100648674512227
 40
0.7817743221675945
 40
0.8533893304648281
 40
0.9267905918702772
 40
1.0
 40
1.0
 40
1.0
 40
1.0
 10
6.24365121353721
 20
3.306279984326043
 30
0.0
 10
6.243717837565868
 20
3.309187640544643
 30
0.0
 10
6.243912712420578
 20
3.317692516256403
 30
0.0
 10
6.246218104375777
 20
3.333689753053063
 30
0.0
 10
6.251608089822178
 20
3.354089431892995
 30
0.0
 10
6.259771728758023
 20
3.375246137157624
 30
0.0
 10
6.270442976070616
 20
3.396195056781724
 30
0.0
 10
6.283226496540868
 20
3.416030296580648
 30
0.0
 10
6.297548613491694
 20
3.433885014418445
 30
0.0
 10
6.312700568033698
 20
3.449017058022935
 30
0.0
 10
6.327863900365928
 20
3.460865020886196
 30
0.0
 10
6.342141895322617
 20
3.469112083187814
 30
0.0
 10
6.354619356191122
 20
3.473777870270206
 30
0.0
 10
6.364398136483582
 20
3.47526548303547
 30
0.0
 10
6.370886069872389
 20
3.474657727222421
 30
0.0
 10
6.373263366177357
 20
3.47348823546095
 30
0.0
 10
6.374450458876597
 20
3.472904254772905
 30
0.0
  0
SPLINE
  5
106
330
1F
100
AcDbEntity
  8
0
  6
Continuous
 62
     7
370
    15
100
AcDbSpline
210
0.0
220
0.0
230
1.0
 70
     8
 71
     3
 72
    23
 73
    19
 74
     0
 42
0.000000001
 43
0.00000001
 40
0.0
 40
0.0
 40
0.0
 40
0.0
 40
0.0247937230662057
 40
0.0926386795481457
 40
0.1603925535149552
 40
0.2281188265705915
 40
0.2959279358131348
 40
0.3639029095844824
 40
0.4320808687479423
 40
0.500469779939003
 40
0.5690594339659708
 40
0.6378285753085919
 40
0.7067494689084871
 40
0.7757907537548581
 40
0.8449191572205123
 40
0.9141004635501022
 40
0.9833000102693982
 40
1.0
 40
1.0
 40
1.0
 40
1.0
 10
7.985611475221042
 20
5.744414063918857
 30
0.0
 10
7.984641040321351
 20
5.748619369336995
 30
0.0
 10
7.981015130349919
 20
5.764331972885588
 30
0.0
 10
7.976474106034174
 20
5.793867352809621
 30
0.0
 10
7.973151782356489
 20
5.833915365643789
 30
0.0
 10
7.972666258601742
 20
5.876597099079884
 30
0.0
 10
7.975038878276801
 20
5.921513324252205
 30
0.0
 10
7.980351283181328
 20
5.968391074640009
 30
0.0
 10
7.988632051051937
 20
6.016902388652248
 30
0.0
 10
7.999885232477286
 20
6.066706660225316
 30
0.0
 10
8.014081657533907
 20
6.11744591686702
 30
0.0
 10
8.03116266813006
 20
6.168753001613447
 30
0.0
 10
8.051038083092253
 20
6.220258023009515
 30
0.0
 10
8.07359835727919
 20
6.271583167932777
 30
0.0
 10
8.098677239890174
 20
6.322381467544177
 30
0.0
 10
8.126199011632393
 20
6.3722077176221
 30
0.0
 10
8.148192848065996
 20
6.408673984180186
 30
0.0
 10
8.161139647691178
 20
6.42823132111715
 30
0.0
 10
8.163656674321594
 20
6.432033522380433
 30
0.0
  0
LINE
  5
107
330
1F
100
AcDbEntity
  8
0
  6
Continuous
 62
     7
370
    15
100
AcDbLine
 10
5.7782931226
 20
3.1510189449
 30
0.0
 11
6.0427621943
 21
2.9983441996
 31
0.0
  0
LINE
  5
108
330
1F
100
AcDbEntity
  8
0
  6
Continuous
 62
     7
370
    15
100
AcDbLine
 10
6.1282529932
 20
2.988059074
 30
0.0
 11
7.5456548888
 21
3.8063077714
 31
0.0
  0
SPLINE
  5
109
330
1F
100
AcDbEntity
  8
0
  6
Continuous
 62
     7
370
    15
100
AcDbSpline
210
0.0
220
0.0
230
1.0
 70
     8
 71
     3
 72
    18
 73
    14
 74
     0
 42
0.000000001
 43
0.00000001
 40
0.0
 40
0.0
 40
0.0
 40
0.0
 40
0.0651571846693476
 40
0.1818171671929635
 40
0.3010521745213303
 40
0.4087295362494419
 40
0.5126653928622784
 40
0.612463290037496
 40
0.7087681884854397
 40
0.8025604513160209
 40
0.8947999643515546
 40
0.994269782165912
 40
1.0
 40
1.0
 40
1.0
 40
1.0
 10
5.70950966457433
 20
3.401722476340424
 30
0.0
 10
5.707582641726791
 20
3.395553625784202
 30
0.0
 10
5.702205401487918
 20
3.378339822906428
 30
0.0
 10
5.696326867681308
 20
3.349528410086003
 30
0.0
 10
5.693478591850514
 20
3.31681294046814
 30
0.0
 10
5.694818900327156
 20
3.285782209874397
 30
0.0
 10
5.699883167363112
 20
3.257313355284513
 30
0.0
 10
5.708550816093309
 20
3.230954662587673
 30
0.0
 10
5.720629435350964
 20
3.20703569980692
 30
0.0
 10
5.735825730825579
 20
3.185654966436247
 30
0.0
 10
5.754680471686223
 20
3.167130707003903
 30
0.0
 10
5.769175096929181
 20
3.155470146233992
 30
0.0
 10
5.777995138775853
 20
3.151290169249291
 30
0.0
 10
5.778475564098675
 20
3.151062487019754
 30
0.0
  0
SPLINE
  5
10A
330
1F
100
AcDbEntity
  8
0
  6
Continuous
 62
     7
370
    15
100
AcDbSpline
210
0.0
220
0.0
230
1.0
 70
     8
 71
     3
 72
    25
 73
    21
 74
     0
 42
0.000000001
 43
0.00000001
 40
0.0
 40
0.0
 40
0.0
 40
0.0
 40
0.024320052021801
 40
0.0842118376539564
 40
0.1435302859530785
 40
0.202510926490536
 40
0.2614382427227597
 40
0.3204442393069229
 40
0.3796334876728531
 40
0.4390504407172759
 40
0.4987028218224575
 40
0.5585762951376455
 40
0.6186436350788566
 40
0.6788703912348478
 40
0.739218290622763
 40
0.7996471829552335
 40
0.8601160660644862
 40
0.9205820288764232
 40
0.9809912307421111
 40
1.0
 40
1.0
 40
1.0
 40
1.0
 10
7.74398341531736
 20
4.8586694220288
 30
0.0
 10
7.742626652029922
 20
4.862219678351967
 30
0.0
 10
7.737928655101535
 20
4.874512974799215
 30
0.0
 10
7.731272699763684
 20
4.89818355868111
 30
0.0
 10
7.725129291840005
 20
4.930768195604518
 30
0.0
 10
7.721542480059616
 20
4.966360639471042
 30
0.0
 10
7.720620333078005
 20
5.004591863051391
 30
0.0
 10
7.722493351906522
 20
5.045205491399344
 30
0.0
 10
7.727243936288879
 20
5.087871686638127
 30
0.0
 10
7.734922893365262
 20
5.132245563410132
 30
0.0
 10
7.745541661898133
 20
5.177952123102471
 30
0.0
 10
7.759073317682143
 20
5.224598355500165
 30
0.0
 10
7.77545326672203
 20
5.271780178921704
 30
0.0
 10
7.794581593082229
 20
5.319088333186788
 30
0.0
 10
7.816323872104804
 20
5.366115691898565
 30
0.0
 10
7.840518416852061
 20
5.412453693457541
 30
0.0
 10
7.866959381369034
 20
5.457725945503917
 30
0.0
 10
7.895467092361603
 20
5.501477045340592
 30
0.0
 10
7.91875389656501
 20
5.533996676440891
 30
0.0
 10
7.932563091207395
 20
5.551627817100401
 30
0.0
 10
7.935868335484988
 20
5.555847847904619
 30
0.0
  0
SPLINE
  5
10B
330
1F
100
AcDbEntity
  8
0
  6
Continuous
 62
     7
370
    15
100
AcDbSpline
210
0.0
220
0.0
230
1.0
 70
     8
 71
     3
 72
    19
 73
    15
 74
     0
 42
0.000000001
 43
0.00000001
 40
0.0
 40
0.0
 40
0.0
 40
0.0
 40
0.0224292939866411
 40
0.113418656789414
 40
0.2042816391043507
 40
0.2950936252690313
 40
0.3859433014310317
 40
0.4768932569372533
 40
0.5680350786582313
 40
0.6594605384495507
 40
0.7512556020454868
 40
0.8434909861703677
 40
0.936204430478241
 40
0.9999999999999999
 40
0.9999999999999999
 40
0.9999999999999999
 40
0.9999999999999999
 10
9.315114739204654
 20
7.813720958376543
 30
0.0
 10
9.31777379372789
 20
7.816974577334201
 30
0.0
 10
9.331219887596681
 20
7.833427216998286
 30
0.0
 10
9.354097654127825
 20
7.864710553298788
 30
0.0
 10
9.382713308505137
 20
7.908115514306954
 30
0.0
 10
9.4088633563635
 20
7.953218521161642
 30
0.0
 10
9.4324494412432
 20
7.999590817950414
 30
0.0
 10
9.453273592607419
 20
8.046944977221358
 30
0.0
 10
9.471178483018107
 20
8.094958470725729
 30
0.0
 10
9.485990598959667
 20
8.14332165841629
 30
0.0
 10
9.497601991022252
 20
8.191745968641614
 30
0.0
 10
9.5056765810679
 20
8.23986789282814
 30
0.0
 10
9.510196849906755
 20
8.282563164562509
 30
0.0
 10
9.510331416880582
 20
8.308586681632537
 30
0.0
 10
9.510386268524737
 20
8.319194282126707
 30
0.0
  0
SPLINE
  5
10C
330
1F
100
AcDbEntity
  8
0
  6
Continuous
 62
     7
370
    15
100
AcDbSpline
210
0.0
220
0.0
230
1.0
 70
     8
 71
     3
 72
    15
 73
    11
 74
     0
 42
0.000000001
 43
0.00000001
 40
0.0
 40
0.0
 40
0.0
 40
0.0
 40
0.1032365204355993
 40
0.2522578967581107
 40
0.3951351062573193
 40
0.532795035962647
 40
0.6667311578169889
 40
0.7983379726143773
 40
0.9425888079412027
 40
1.0
 40
1.0
 40
1.0
 40
1.0
 10
9.94023337878137
 20
9.056695010260075
 30
0.0
 10
9.940593608761635
 20
9.063183087117586
 30
0.0
 10
9.941473828830922
 20
9.079036668923477
 30
0.0
 10
9.93941990111446
 20
9.10361277350004
 30
0.0
 10
9.933543730784567
 20
9.129627283940106
 30
0.0
 10
9.9240276784916
 20
9.153549671014035
 30
0.0
 10
9.91118449207118
 20
9.175172825676011
 30
0.0
 10
9.894531240711913
 20
9.194550684823188
 30
0.0
 10
9.878726040375536
 20
9.20843108182594
 30
0.0
 10
9.867603121293662
 20
9.214356538412764
 30
0.0
 10
9.864436535834107
 20
9.21604345751475
 30
0.0
  0
LINE
  5
10D
330
1F
100
AcDbEntity
  8
0
  6
Continuous
 62
     7
370
    15
100
AcDbLine
 10
9.864933736
 20
9.2163478831
 30
0.0
 11
9.6004646643
 21
9.3690226284
 31
0.0
  0
LINE
  5
10E
330
1F
100
AcDbEntity
  8
0
  6
Continuous
 62
     7
370
    15
100
AcDbLine
 10
9.5119148989
 20
8.3848638106
 30
0.0
 11
9.9140330431
 21
8.617001674
 31
0.0
  0
LINE
  5
10F
330
1F
100
AcDbEntity
  8
0
  6
Continuous
 62
     7
370
    15
100
AcDbLine
 10
9.5119148993
 20
8.319496248
 30
0.0
 11
9.5119148993
 21
8.3848638112
 31
0.0
  0
SPLINE
  5
110
330
1F
100
AcDbEntity
  8
0
  6
Continuous
 62
     7
370
    15
100
AcDbSpline
210
0.0
220
0.0
230
1.0
 70
     8
 71
     3
 72
    15
 73
    11
 74
     0
 42
0.000000001
 43
0.00000001
 40
0.0
 40
0.0
 40
0.0
 40
0.0
 40
0.0581611728631583
 40
0.1961331399521854
 40
0.3350413486238047
 40
0.4767424733343535
 40
0.6228644459169167
 40
0.7549334721718811
 40
0.8822502416562159
 40
0.9999999999999999
 40
0.9999999999999999
 40
0.9999999999999999
 40
0.9999999999999999
 10
7.935498694854524
 20
5.555746751204597
 30
0.0
 10
7.938174165308733
 20
5.558806081791321
 30
0.0
 10
7.947196480286247
 20
5.569122863324214
 30
0.0
 10
7.96046059811215
 20
5.588814216051154
 30
0.0
 10
7.974191739971846
 20
5.615040051149322
 30
0.0
 10
7.984517484113704
 20
5.643194431843188
 30
0.0
 10
7.990747583884709
 20
5.671640870723467
 30
0.0
 10
7.992605570775446
 20
5.69930120754849
 30
0.0
 10
7.990834755090518
 20
5.724934351037065
 30
0.0
 10
7.986411604293937
 20
5.740942256307093
 30
0.0
 10
7.984286365314828
 20
5.74863374724158
 30
0.0
  0
LINE
  5
111
330
1F
100
AcDbEntity
  8
0
  6
Continuous
 62
     7
370
    15
100
AcDbLine
 10
9.5103944012
 20
8.3186184827
 30
0.0
 11
9.5119148989
 21
8.3194962474
 31
0.0
  0
LINE
  5
112
330
1F
100
AcDbEntity
  8
0
  6
Continuous
 62
     7
370
    15
100
AcDbLine
 10
9.9406331839
 20
8.7538802349
 30
0.0
 11
9.9406331839
 21
9.0635370822
 31
0.0
  0
LINE
  5
113
330
1F
100
AcDbEntity
  8
0
  6
Continuous
 62
     7
370
    15
100
AcDbLine
 10
9.5939304812
 20
9.3721067947
 30
0.0
 11
9.5901564152
 21
9.3742251597
 31
0.0
  0
SPLINE
  5
114
330
1F
100
AcDbEntity
  8
0
  6
Continuous
 62
     7
370
    15
100
AcDbSpline
210
0.0
220
0.0
230
1.0
 70
     8
 71
     3
 72
    12
 73
     8
 74
     0
 42
0.000000001
 43
0.00000001
 40
0.0
 40
0.0
 40
0.0
 40
0.0
 40
0.1000215892199995
 40
0.3276153023502228
 40
0.5598310631968274
 40
0.7976938702273438
 40
0.9999999999999999
 40
0.9999999999999999
 40
0.9999999999999999
 40
0.9999999999999999
 10
9.917301624085079
 20
8.62104156116953
 30
0.0
 10
9.919362433013859
 20
8.625505326777054
 30
0.0
 10
9.92611250112969
 20
8.640126149446774
 30
0.0
 10
9.934032252710798
 20
8.666158388500161
 30
0.0
 10
9.940636940930784
 20
8.698699303685265
 30
0.0
 10
9.943038395640606
 20
8.730115992561341
 30
0.0
 10
9.941096075614382
 20
8.750215299144886
 30
0.0
 10
9.940203365533252
 20
8.759453145312683
 30
0.0
  0
SPLINE
  5
115
330
1F
100
AcDbEntity
  8
0
  6
Continuous
 62
     7
370
    15
100
AcDbSpline
210
0.0
220
0.0
230
1.0
 70
     8
 71
     3
 72
    14
 73
    10
 74
     0
 42
0.000000001
 43
0.00000001
 40
0.0
 40
0.0
 40
0.0
 40
0.0
 40
0.0902709771471095
 40
0.266589236782497
 40
0.4433845674459965
 40
0.6202820341176773
 40
0.7966365110980673
 40
0.9719538643948337
 40
1.0
 40
1.0
 40
1.0
 40
1.0
 10
7.610448933566368
 20
4.535937509249327
 30
0.0
 10
7.612692500248957
 20
4.541318969113798
 30
0.0
 10
7.619318225908351
 20
4.557211555229344
 30
0.0
 10
7.632178615179361
 20
4.583465750265717
 30
0.0
 10
7.649602449749144
 20
4.613966243301389
 30
0.0
 10
7.668943954663493
 20
4.643095371128036
 30
0.0
 10
7.689762706057424
 20
4.67018645222724
 30
0.0
 10
7.705500726878205
 20
4.688154044794065
 30
0.0
 10
7.71410999718058
 20
4.696940074952496
 30
0.0
 10
7.715297313368287
 20
4.698151768332587
 30
0.0
  0
SPLINE
  5
116
330
1F
100
AcDbEntity
  8
0
  6
Continuous
 62
     7
370
    15
100
AcDbSpline
210
0.0
220
0.0
230
1.0
 70
     8
 71
     3
 72
    22
 73
    18
 74
     0
 42
0.000000001
 43
0.00000001
 40
0.0
 40
0.0
 40
0.0
 40
0.0
 40
0.0523933064565483
 40
0.1201053067657407
 40
0.1919872394512172
 40
0.2617008581293507
 40
0.3303113355899708
 40
0.3984943226269963
 40
0.4666110734592069
 40
0.5348252012888575
 40
0.6032655496882456
 40
0.6719857345696668
 40
0.7409938506743815
 40
0.8102709074559554
 40
0.8797822481310075
 40
0.9494845415039515
 40
0.9999999999999999
 40
0.9999999999999999
 40
0.9999999999999999
 40
0.9999999999999999
 10
7.5731104822045
 20
4.00789864957826
 30
0.0
 10
7.569885461463054
 20
4.011981787680176
 30
0.0
 10
7.562492492176061
 20
4.021341887041422
 30
0.0
 10
7.55181949204241
 20
4.04065390592618
 30
0.0
 10
7.541494039159834
 20
4.065205609823715
 30
0.0
 10
7.533061278760124
 20
4.093931224583164
 30
0.0
 10
7.526976734299748
 20
4.125664584372318
 30
0.0
 10
7.523394561826462
 20
4.160308842672429
 30
0.0
 10
7.522460958299236
 20
4.197634258306023
 30
0.0
 10
7.524302283930267
 20
4.237358678367748
 30
0.0
 10
7.529009364098577
 20
4.279152060646629
 30
0.0
 10
7.536634017521574
 20
4.322661159888066
 30
0.0
 10
7.547194859191605
 20
4.367501405838206
 30
0.0
 10
7.560643214993131
 20
4.41327645782427
 30
0.0
 10
7.57699142108184
 20
4.459550744996361
 30
0.0
 10
7.594095890980613
 20
4.501695137034981
 30
0.0
 10
7.60663102031093
 20
4.528073644828611
 30
0.0
 10
7.611898277397207
 20
4.539157884842422
 30
0.0
  0
SPLINE
  5
117
330
1F
100
AcDbEntity
  8
0
  6
Continuous
 62
     7
370
    15
100
AcDbSpline
210
0.0
220
0.0
230
1.0
 70
     8
 71
     3
 72
    14
 73
    10
 74
     0
 42
0.000000001
 43
0.00000001
 40
0.0
 40
0.0
 40
0.0
 40
0.0
 40
0.1011919555629782
 40
0.2569034757822265
 40
0.4170462909839923
 40
0.5663934433979206
 40
0.7120003482844507
 40
0.8522061272272768
 40
1.0
 40
1.0
 40
1.0
 40
1.0
 10
7.712991486362996
 20
4.695069186347752
 30
0.0
 10
7.716525116077046
 20
4.699855661194398
 30
0.0
 10
7.725496202272743
 20
4.712007437667205
 30
0.0
 10
7.737235980093236
 20
4.733751155511865
 30
0.0
 10
7.746854049047231
 20
4.75936511840643
 30
0.0
 10
7.75238978724003
 20
4.785318108523947
 30
0.0
 10
7.753785178575869
 20
4.810423200072114
 30
0.0
 10
7.751485224370298
 20
4.835396943887921
 30
0.0
 10
7.746330002464427
 20
4.851181858140616
 30
0.0
 10
7.743684477701002
 20
4.859282262411574
 30
0.0
  0
SPLINE
  5
118
330
1F
100
AcDbEntity
  8
0
  6
Continuous
 62
     7
370
    15
100
AcDbSpline
210
0.0
220
0.0
230
1.0
 70
     8
 71
     3
 72
    21
 73
    17
 74
     0
 42
0.000000001
 43
0.00000001
 40
0.0
 40
0.0
 40
0.0
 40
0.0
 40
0.0110338847114613
 40
0.0831431327757445
 40
0.1559097299342974
 40
0.2311902917183299
 40
0.3112594534076797
 40
0.3986045540841057
 40
0.4807112360102639
 40
0.5605843610491591
 40
0.639087331509951
 40
0.7173089808138027
 40
0.7957793135339839
 40
0.8746193160554416
 40
0.9537673864435263
 40
1.0
 40
1.0
 40
1.0
 40
1.0
 10
7.541933233582554
 20
3.804159305573823
 30
0.0
 10
7.542897896796968
 20
3.804417418864858
 30
0.0
 10
7.550166879917357
 20
3.80636236828104
 30
0.0
 10
7.562777964411852
 20
3.813057306878731
 30
0.0
 10
7.579281859735103
 20
3.824217295112122
 30
0.0
 10
7.594133046982767
 20
3.838739421153438
 30
0.0
 10
7.607194044115752
 20
3.856546871952049
 30
0.0
 10
7.617171709542644
 20
3.87699449122666
 30
0.0
 10
7.623269286800253
 20
3.898845825894642
 30
0.0
 10
7.625295856143842
 20
3.920617695543241
 30
0.0
 10
7.623405686857523
 20
3.942050610154769
 30
0.0
 10
7.617662533478547
 20
3.962652467591655
 30
0.0
 10
7.60820852096888
 20
3.981918984957566
 30
0.0
 10
7.595144501021307
 20
3.998950966059065
 30
0.0
 10
7.58159276818458
 20
4.011856005645199
 30
0.0
 10
7.571608546057139
 20
4.017310040866194
 30
0.0
 10
7.567926984681352
 20
4.019321150510541
 30
0.0
  0
LINE
  5
119
330
1F
100
AcDbEntity
  8
0
  6
Continuous
 62
     7
370
    15
100
AcDbLine
 10
7.5681619351
 20
4.0198867131
 30
0.0
 11
7.5620136626
 21
4.0234360353
 31
0.0
  0
LWPOLYLINE
  5
11A
330
1F
100
AcDbEntity
  8
0
  6
Continuous
 62
     7
370
    15
100
AcDbPolyline
 90
       32
 70
   128
 43
0.0
 10
8.960313502
 20
7.9969916792
 10
8.9585041873
 20
8.0164932412
 10
8.9531503169
 20
8.0331074167
 10
8.9444710787
 20
8.0461540194
 10
8.9328218019
 20
8.0550989199
 10
8.9186794092
 20
8.0595759129
 10
8.9026228918
 20
8.0594017097
 10
8.8853096054
 20
8.0545834423
 10
8.867448358
 20
8.0453183711
 10
8.8497703912
 20
8.0319858092
 10
8.832999443
 20
8.0151315933
 10
8.817822118
 20
7.9954457369
 10
8.8048597776
 20
7.9737341813
 10
8.7946431017
 20
7.9508858001
 10
8.7875903621
 20
7.9278360088
 10
8.7839902987
 20
7.9055284686
 10
8.7839902987
 20
7.8848764526
 10
8.7875903621
 20
7.866725457
 10
8.7946431017
 20
7.8518185855
 10
8.8048597776
 20
7.8407661273
 10
8.817822118
 20
7.8340205713
 10
8.832999443
 20
7.8318580814
 10
8.8497703912
 20
7.8343671901
 10
8.867448358
 20
7.8414451742
 10
8.8853096054
 20
7.8528022603
 10
8.9026228918
 20
7.8679734879
 10
8.9186794092
 20
7.8863377451
 10
8.9328218019
 20
7.9071431972
 10
8.9444710787
 20
7.9295380664
 10
8.9531503169
 20
7.9526055042
 10
8.9585041873
 20
7.9754011269
 10
8.960313502
 20
7.9969916792
  0
LINE
  5
11B
330
1F
100
AcDbEntity
  8
0
  6
Continuous
 62
     7
370
    15
100
AcDbLine
 10
8.4830408597
 20
7.3683585378
 30
0.0
 11
9.3175142689
 21
7.8500897829
 31
0.0
  0
ARC
  5
11C
330
1F
100
AcDbEntity
  8
0
  6
Continuous
 62
     7
370
    15
100
AcDbCircle
 10
8.6970818687
 20
7.0809821641
 30
0.0
 40
0.3583276902956538
100
AcDbArc
 50
126.6791365895
 51
168.7682636391
  0
LINE
  5
11D
330
1F
100
AcDbEntity
  8
0
  6
Continuous
 62
     7
370
    15
100
AcDbLine
 10
8.1406650352
 20
6.4334637219
 30
0.0
 11
8.3456170789
 21
7.150776399
 31
0.0
  0
LWPOLYLINE
  5
11E
330
1F
100
AcDbEntity
  8
0
  6
Continuous
 62
     7
370
    15
100
AcDbPolyline
 90
       14
 70
   128
 43
0.0
 10
7.9572975011
 20
5.6728566163
 10
7.9479345812
 20
5.7220804823
 10
7.9426071787
 20
5.7743528153
 10
7.9413534865
 20
5.8292988708
 10
7.9441824922
 20
5.886524736
 10
7.9510739145
 20
5.945620154
 10
7.9619783483
 20
6.006161465
 10
7.9768176187
 20
6.0677146433
 10
7.9954853419
 20
6.1298384094
 10
8.0178476874
 20
6.1920873928
 10
8.0437443377
 20
6.2540153255
 10
8.0729896376
 20
6.3151782412
 10
8.1053739253
 20
6.375137658
 10
8.1406650352
 20
6.4334637219
  0
ARC
  5
11F
330
1F
100
AcDbEntity
  8
0
  6
Continuous
 62
     7
370
    15
100
AcDbCircle
 10
7.8587871563
 20
5.6528251523
 30
0.0
 40
0.1005263527263518
100
AcDbArc
 50
314.4810850846
 51
11.4940282424
  0
LWPOLYLINE
  5
120
330
1F
100
AcDbEntity
  8
0
  6
Continuous
 62
     7
370
    15
100
AcDbPolyline
 90
       17
 70
   128
 43
0.0
 10
7.7194980016
 20
4.7754126762
 10
7.7065651244
 20
4.8148281721
 10
7.6971860668
 20
4.8574096813
 10
7.6914308867
 20
4.9028391359
 10
7.6893425732
 20
4.9507771945
 10
7.6909367254
 20
5.0008657776
 10
7.6962014353
 20
5.052730742
 10
7.7050973777
 20
5.1059846757
 10
7.717558103
 20
5.1602297914
 10
7.7334905344
 20
5.2150608982
 10
7.7527756624
 20
5.270068428
 10
7.7752694342
 20
5.3248414948
 10
7.8008038297
 20
5.3789709643
 10
7.8291881165
 20
5.4320525092
 10
7.8602102743
 20
5.48368963
 10
7.8936385792
 20
5.5334966166
 10
7.9292233341
 20
5.5811014292
  0
ARC
  5
121
330
1F
100
AcDbEntity
  8
0
  6
Continuous
 62
     7
370
    15
100
AcDbCircle
 10
7.6577456265
 20
4.761373758
 30
0.0
 40
0.0633280905219952
100
AcDbArc
 50
323.2754913188
 51
12.8080487206
  0
ARC
  5
122
330
1F
100
AcDbEntity
  8
0
  6
Continuous
 62
     7
370
    15
100
AcDbCircle
 10
8.1621663213
 20
4.2998895235
 30
0.0
 40
0.6206929569426902
100
AcDbArc
 50
136.9615573172
 51
157.3049491739
  0
LWPOLYLINE
  5
123
330
1F
100
AcDbEntity
  8
0
  6
Continuous
 62
     7
370
    15
100
AcDbPolyline
 90
       15
 70
   128
 43
0.0
 10
7.580870374
 20
3.8777495992
 10
7.5571175053
 20
3.9061222683
 10
7.5367827245
 20
3.9387914529
 10
7.5200350699
 20
3.9754855818
 10
7.507013761
 20
4.0158996251
 10
7.4978270408
 20
4.0596976301
 10
7.4925512765
 20
4.1065155143
 10
7.4912303243
 20
4.1559640913
 10
7.4938751649
 20
4.2076323066
 10
7.5004638124
 20
4.2610906543
 10
7.5109414968
 20
4.3158947474
 10
7.5252211196
 20
4.3715890121
 10
7.5431839777
 20
4.4277104751
 10
7.5646807499
 20
4.4837926114
 10
7.5895327384
 20
4.5393692232
  0
LWPOLYLINE
  5
124
330
1F
100
AcDbEntity
  8
0
  6
Continuous
 62
     7
370
    15
100
AcDbPolyline
 90
       12
 70
   128
 43
0.0
 10
7.5792438501
 20
3.8623210282
 10
7.5819314161
 20
3.8618117434
 10
7.5851050828
 20
3.8629748681
 10
7.5882498368
 20
3.8656216537
 10
7.5908553568
 20
3.8693225878
 10
7.5924988269
 20
3.8734770939
 10
7.5929135495
 20
3.877410991
 10
7.5920322248
 20
3.880485898
 10
7.5899978714
 20
3.8822028282
 10
7.5871406183
 20
3.8822831633
 10
7.5839241318
 20
3.8807138667
 10
7.580870374
 20
3.8777495992
  0
LINE
  5
125
330
1F
100
AcDbEntity
  8
0
  6
Continuous
 62
     7
370
    15
100
AcDbLine
 10
6.1710543598
 20
3.0493905392
 30
0.0
 11
7.5792438501
 21
3.8623210282
 31
0.0
  0
ARC
  5
126
330
1F
100
AcDbEntity
  8
0
  6
Continuous
 62
     7
370
    15
100
AcDbCircle
 10
6.2461684997
 20
3.1222053187
 30
0.0
 40
0.1046141774474806
100
AcDbArc
 50
153.0344473625
 51
224.1094842417
  0
ARC
  5
127
330
1F
100
AcDbEntity
  8
0
  6
Continuous
 62
     7
370
    15
100
AcDbCircle
 10
24.6099544035
 20
-2.3240072536
 30
0.0
 40
19.25725879351243
100
AcDbArc
 50
150.9684327264
 51
163.4246013155
  0
ARC
  5
128
330
1F
100
AcDbEntity
  8
0
  6
Continuous
 62
     7
370
    15
100
AcDbCircle
 10
7.3990562972
 20
7.1700528481
 30
0.0
 40
0.4017870295926027
100
AcDbArc
 50
338.2818624675
 51
18.2666017137
  0
ARC
  5
129
330
1F
100
AcDbEntity
  8
0
  6
Continuous
 62
     7
370
    15
100
AcDbCircle
 10
9.0940440484
 20
7.596913391
 30
0.0
 40
1.34747909682698
100
AcDbArc
 50
171.3500708559
 51
192.904360645
  0
ARC
  5
12A
330
1F
100
AcDbEntity
  8
0
  6
Continuous
 62
     7
370
    15
100
AcDbCircle
 10
7.8745325423
 20
7.7968008186
 30
0.0
 40
0.1126749903564993
100
AcDbArc
 50
166.4579383931
 51
178.5916691029
  0
LINE
  5
12B
330
1F
100
AcDbEntity
  8
0
  6
Continuous
 62
     7
370
    15
100
AcDbLine
 10
9.9042486976
 20
9.0581523919
 30
0.0
 11
7.7649901101
 21
7.8231846964
 31
0.0
  0
ARC
  5
12C
330
1F
100
AcDbEntity
  8
0
  6
Continuous
 62
     7
370
    15
100
AcDbCircle
 10
9.8295665874
 20
9.0300795505
 30
0.0
 40
0.0797840962140533
100
AcDbArc
 50
354.0599734222
 51
20.6011304427
  0
LINE
  5
12D
330
1F
100
AcDbEntity
  8
0
  6
Continuous
 62
     7
370
    15
100
AcDbLine
 10
9.9089223039
 20
8.7046625961
 30
0.0
 11
9.9089223039
 21
9.0218229013
 31
0.0
  0
ARC
  5
12E
330
1F
100
AcDbEntity
  8
0
  6
Continuous
 62
     7
370
    15
100
AcDbCircle
 10
9.7781118943
 20
8.6854011321
 30
0.0
 40
0.1322209032531615
100
AcDbArc
 50
343.7701124008
 51
8.3764494072
  0
LINE
  5
12F
330
1F
100
AcDbEntity
  8
0
  6
Continuous
 62
     7
370
    15
100
AcDbLine
 10
9.4802040193
 20
8.4031802717
 30
0.0
 11
9.9050635332
 21
8.6484464484
 31
0.0
  0
LINE
  5
130
330
1F
100
AcDbEntity
  8
0
  6
Continuous
 62
     7
370
    15
100
AcDbLine
 10
9.4802040193
 20
8.3378127084
 30
0.0
 11
9.4802040193
 21
8.4031802717
 31
0.0
  0
LINE
  5
131
330
1F
100
AcDbEntity
  8
0
  6
Continuous
 62
     7
370
    15
100
AcDbLine
 10
9.4751457346
 20
8.3348926229
 30
0.0
 11
9.4802040193
 21
8.3378127084
 31
0.0
  0
ARC
  5
132
330
1F
100
AcDbEntity
  8
0
  6
Continuous
 62
     7
370
    15
100
AcDbCircle
 10
8.7964911872
 20
8.2875260991
 30
0.0
 40
0.6803055066261843
100
AcDbArc
 50
319.9841262651
 51
3.9924700999
  0
LWPOLYLINE
  5
133
330
1F
100
AcDbEntity
  8
0
  6
Continuous
 62
     7
370
    15
100
AcDbPolyline
 90
       71
 70
   128
 43
0.0
 10
6.5836746638
 20
3.982773213
 10
6.5854958179
 20
4.0306515116
 10
6.5909446175
 20
4.080246982
 10
6.599977192
 20
4.1311603108
 10
6.6125208163
 20
4.1829815738
 10
6.6284744967
 20
4.2352935366
 10
6.6477097835
 20
4.287675014
 10
6.6700718055
 20
4.3397042612
 10
6.6953805167
 20
4.3909623694
 10
6.7234321464
 20
4.4410366382
 10
6.7540008393
 20
4.4895238992
 10
6.7868404742
 20
4.5360337615
 10
6.8216866458
 20
4.580191755
 10
6.8582587932
 20
4.6216423455
 10
6.8962624589
 20
4.6600517972
 10
6.9353916597
 20
4.6951108598
 10
6.9753313504
 20
4.7265372583
 10
7.0157599601
 20
4.7540779658
 10
7.0563519812
 20
4.7775112409
 10
7.0967805909
 20
4.7966484124
 10
7.1367202815
 20
4.8113353992
 10
7.1758494824
 20
4.8214539503
 10
7.2138531481
 20
4.8269225971
 10
7.2504252954
 20
4.8276973091
 10
7.2852714671
 20
4.823771849
 10
7.318111102
 20
4.8151778222
 10
7.3486797949
 20
4.8019844227
 10
7.3767314246
 20
4.7842978761
 10
7.4020401358
 20
4.762260584
 10
7.4244021578
 20
4.7360499777
 10
7.4436374445
 20
4.7058770897
 10
7.4595911249
 20
4.6719848542
 10
7.4721347493
 20
4.6346461517
 10
7.4811673238
 20
4.5941616114
 10
7.4866161234
 20
4.550857191
 10
7.4884372775
 20
4.5050815523
 10
7.4866161234
 20
4.4572032537
 10
7.4811673238
 20
4.4076077832
 10
7.4721347493
 20
4.3566944544
 10
7.4595911249
 20
4.3048731915
 10
7.4436374445
 20
4.2525612287
 10
7.4244021578
 20
4.2001797512
 10
7.4020401358
 20
4.148150504
 10
7.3767314246
 20
4.0968923959
 10
7.3486797949
 20
4.046818127
 10
7.318111102
 20
3.998330866
 10
7.2852714671
 20
3.9518210037
 10
7.2504252954
 20
3.9076630102
 10
7.2138531481
 20
3.8662124198
 10
7.1758494824
 20
3.8278029681
 10
7.1367202815
 20
3.7927439055
 10
7.0967805909
 20
3.761317507
 10
7.0563519812
 20
3.7337767994
 10
7.0157599601
 20
3.7103435244
 10
6.9753313504
 20
3.6912063528
 10
6.9353916597
 20
3.676519366
 10
6.8962624589
 20
3.6664008149
 10
6.8582587932
 20
3.6609321682
 10
6.8216866458
 20
3.6601574561
 10
6.7868404742
 20
3.6640829162
 10
6.7540008393
 20
3.6726769431
 10
6.7234321464
 20
3.6858703425
 10
6.6953805167
 20
3.7035568891
 10
6.6700718055
 20
3.7255941813
 10
6.6477097835
 20
3.7518047875
 10
6.6284744967
 20
3.7819776756
 10
6.6125208163
 20
3.815869911
 10
6.599977192
 20
3.8532086135
 10
6.5909446175
 20
3.8936931539
 10
6.5854958179
 20
3.9369975743
 10
6.5836746638
 20
3.982773213
  0
LWPOLYLINE
  5
134
330
1F
100
AcDbEntity
  8
0
  6
Continuous
 62
     7
370
    15
100
AcDbPolyline
 90
       65
 70
   128
 43
0.0
 10
7.0430156831
 20
5.1480688687
 10
7.0448588935
 20
5.1924589624
 10
7.0503707738
 20
5.2385496807
 10
7.0594982414
 20
5.2858971449
 10
7.072153394
 20
5.3340453729
 10
7.0882143554
 20
5.382530671
 10
7.1075264498
 20
5.4308860993
 10
7.1299036912
 20
5.4786459686
 10
7.1551305744
 20
5.5253503252
 10
7.182964151
 20
5.5705493806
 10
7.2131363682
 20
5.6138078433
 10
7.2453566511
 20
5.6547091105
 10
7.2793147009
 20
5.6928592808
 10
7.3146834828
 20
5.727890947
 10
7.3511223763
 20
5.7594667352
 10
7.3882804548
 20
5.7872825533
 10
7.4257998658
 20
5.8110705196
 10
7.4633192767
 20
5.8306015431
 10
7.5004773553
 20
5.8456875293
 10
7.5369162487
 20
5.856183192
 10
7.5722850307
 20
5.8619874522
 10
7.6062430804
 20
5.8630444116
 10
7.6384633634
 20
5.8593438912
 10
7.6686355806
 20
5.8509215291
 10
7.6964691571
 20
5.8378584371
 10
7.7216960404
 20
5.8202804199
 10
7.7440732818
 20
5.7983567636
 10
7.7633853762
 20
5.7722986049
 10
7.7794463376
 20
5.7423568981
 10
7.7921014901
 20
5.7088199982
 10
7.8012289578
 20
5.6720108839
 10
7.806740838
 20
5.6322840471
 10
7.8085840485
 20
5.5900220789
 10
7.806740838
 20
5.5456319852
 10
7.8012289578
 20
5.4995412668
 10
7.7921014901
 20
5.4521938027
 10
7.7794463376
 20
5.4040455747
 10
7.7633853762
 20
5.3555602765
 10
7.7440732818
 20
5.3072048482
 10
7.7216960404
 20
5.259444979
 10
7.6964691571
 20
5.2127406224
 10
7.6686355806
 20
5.1675415669
 10
7.6384633634
 20
5.1242831043
 10
7.6062430804
 20
5.0833818371
 10
7.5722850307
 20
5.0452316668
 10
7.5369162487
 20
5.0102000005
 10
7.5004773553
 20
4.9786242123
 10
7.4633192767
 20
4.9508083943
 10
7.4257998658
 20
4.927020428
 10
7.3882804548
 20
4.9074894045
 10
7.3511223763
 20
4.8924034183
 10
7.3146834828
 20
4.8819077556
 10
7.2793147009
 20
4.8761034954
 10
7.2453566511
 20
4.875046536
 10
7.2131363682
 20
4.8787470564
 10
7.182964151
 20
4.8871694185
 10
7.1551305744
 20
4.9002325105
 10
7.1299036912
 20
4.9178105276
 10
7.1075264498
 20
4.9397341839
 10
7.0882143554
 20
4.9657923427
 10
7.072153394
 20
4.9957340495
 10
7.0594982414
 20
5.0292709494
 10
7.0503707738
 20
5.0660800637
 10
7.0448588935
 20
5.1058069005
 10
7.0430156831
 20
5.1480688687
  0
LWPOLYLINE
  5
135
330
1F
100
AcDbEntity
  8
0
  6
Continuous
 62
     7
370
    15
100
AcDbPolyline
 90
       35
 70
   128
 43
0.0
 10
6.2321199845
 20
3.2902089585
 10
6.2340160217
 20
3.3149317034
 10
6.2396395663
 20
3.3410016629
 10
6.248799115
 20
3.3675310559
 10
6.2611827505
 20
3.3936164556
 10
6.2763687629
 20
3.418369555
 10
6.2938400108
 20
3.4409474171
 10
6.3130015317
 20
3.4605811798
 10
6.3332008031
 20
3.4766022388
 10
6.353749963
 20
3.4884650163
 10
6.3739492344
 20
3.4957655396
 10
6.3931107553
 20
3.4982551981
 10
6.4105820032
 20
3.4958492094
 10
6.4257680156
 20
3.4886295067
 10
6.4381516511
 20
3.4768419482
 10
6.4473111999
 20
3.4608879452
 10
6.4529347444
 20
3.441310792
 10
6.4548307817
 20
3.4187771651
 10
6.4529347444
 20
3.3940544202
 10
6.4473111999
 20
3.3679844606
 10
6.4381516511
 20
3.3414550677
 10
6.4257680156
 20
3.315369668
 10
6.4105820032
 20
3.2906165686
 10
6.3931107553
 20
3.2680387065
 10
6.3739492344
 20
3.2484049438
 10
6.353749963
 20
3.2323838848
 10
6.3332008031
 20
3.2205211073
 10
6.3130015317
 20
3.213220584
 10
6.2938400108
 20
3.2107309255
 10
6.2763687629
 20
3.2131369142
 10
6.2611827505
 20
3.2203566169
 10
6.248799115
 20
3.2321441754
 10
6.2396395663
 20
3.2480981784
 10
6.2340160217
 20
3.2676753316
 10
6.2321199845
 20
3.2902089585
  0
ARC
  5
136
330
1F
100
AcDbEntity
  8
0
  6
Continuous
 62
     7
370
    15
100
AcDbCircle
 10
24.6472058514
 20
-2.3442166233
 30
0.0
 40
19.45051040209447
100
AcDbArc
 50
151.0257476268
 51
163.4129411425
  0
SPLINE
  5
137
330
1F
100
AcDbEntity
  8
0
  6
Continuous
 62
     7
370
    15
100
AcDbSpline
210
0.0
220
0.0
230
1.0
 70
     8
 71
     3
 72
    20
 73
    16
 74
     0
 42
0.000000001
 43
0.00000001
 40
0.0
 40
0.0
 40
0.0
 40
0.0
 40
0.1250000000000004
 40
0.1250000000000004
 40
0.2500000000000007
 40
0.2500000000000007
 40
0.3750000000000011
 40
0.3750000000000011
 40
0.5000000000000014
 40
0.5000000000000014
 40
0.7500000000000051
 40
0.7500000000000051
 40
0.8750000000000026
 40
0.8750000000000026
 40
1.0
 40
1.0
 40
1.0
 40
1.0
 10
7.631170288440347
 20
7.077932209251459
 30
0.0
 10
7.636259327126099
 20
7.074994369751847
 30
0.0
 10
7.641689975354887
 20
7.072034903055448
 30
0.0
 10
7.653204134998193
 20
7.066072194977676
 30
0.0
 10
7.659361414490617
 20
7.063035045991261
 30
0.0
 10
7.671953445830463
 20
7.05710190183252
 30
0.0
 10
7.678372876574995
 20
7.054209183339939
 30
0.0
 10
7.69145170708608
 20
7.048560532060938
 30
0.0
 10
7.698130580499964
 20
7.045799812634358
 30
0.0
 10
7.717665457831353
 20
7.03806538153341
 30
0.0
 10
7.730529672218711
 20
7.033437071783789
 30
0.0
 10
7.747785994633347
 20
7.027875986311818
 30
0.0
 10
7.753284087085686
 20
7.026222973025575
 30
0.0
 10
7.763473585899604
 20
7.023412221809256
 30
0.0
 10
7.768180401294402
 20
7.02225113665578
 30
0.0
 10
7.772322666613305
 20
7.021375228317907
 30
0.0
  0
SPLINE
  5
138
330
1F
100
AcDbEntity
  8
0
  6
Continuous
 62
     7
370
    15
100
AcDbSpline
210
0.0
220
0.0
230
1.0
 70
     8
 71
     3
 72
    22
 73
    18
 74
     0
 42
0.000000001
 43
0.00000001
 40
0.0
 40
0.0
 40
0.0
 40
0.0
 40
0.1249999999999995
 40
0.1249999999999995
 40
0.2499999999999989
 40
0.2499999999999989
 40
0.3749999999999984
 40
0.3749999999999984
 40
0.4999999999999978
 40
0.4999999999999978
 40
0.624999999999998
 40
0.624999999999998
 40
0.7499999999999987
 40
0.7499999999999987
 40
0.8749999999999994
 40
0.8749999999999994
 40
1.0
 40
1.0
 40
1.0
 40
1.0
 10
6.006088037480708
 20
3.208357694095421
 30
0.0
 10
6.0111435594068
 20
3.20543920340931
 30
0.0
 10
6.016570290967502
 20
3.202606502906408
 30
0.0
 10
6.028135716310432
 20
3.197105401427375
 30
0.0
 10
6.034346633486675
 20
3.194409545649951
 30
0.0
 10
6.047142168582611
 20
3.189344528589658
 30
0.0
 10
6.053696517634612
 20
3.186981128750354
 30
0.0
 10
6.0671151346689
 20
3.18258818935539
 30
0.0
 10
6.074022307657863
 20
3.180551772164975
 30
0.0
 10
6.087566049588031
 20
3.176991389977011
 30
0.0
 10
6.094271495905803
 20
3.175442242201006
 30
0.0
 10
6.107545746004442
 20
3.172814765139662
 30
0.0
 10
6.114013216396902
 20
3.171760375396695
 30
0.0
 10
6.126282686303242
 20
3.170208016120488
 30
0.0
 10
6.132168904353207
 20
3.169697938004399
 30
0.0
 10
6.143218918269802
 20
3.169244716743166
 30
0.0
 10
6.148359506829963
 20
3.169306100546181
 30
0.0
 10
6.152928047627215
 20
3.169643111991988
 30
0.0
  0
LINE
  5
139
330
1F
100
AcDbEntity
  8
0
  6
Continuous
 62
     7
370
    15
100
AcDbLine
 10
6.0060880375
 20
3.2083576941
 30
0.0
 11
5.7416189658
 21
3.3610324394
 31
0.0
  0
ARC
  5
13A
330
1F
100
AcDbEntity
  8
0
  6
Continuous
 62
     7
370
    15
100
AcDbCircle
 10
24.3643062776
 20
-2.1838017294
 30
0.0
 40
19.43063737175418
100
AcDbArc
 50
151.0193881872
 51
163.4193005821
  0
LINE
  5
13B
330
1F
100
AcDbEntity
  8
0
  6
Continuous
 62
     7
370
    15
100
AcDbLine
 10
7.6311702884
 20
7.0779322093
 30
0.0
 11
7.3667012167
 21
7.2306069546
 31
0.0
  0
SPLINE
  5
13C
330
1F
100
AcDbEntity
  8
0
  6
Continuous
 62
     7
370
    15
100
AcDbSpline
210
0.0
220
0.0
230
1.0
 70
     8
 71
     3
 72
    10
 73
     6
 74
     0
 42
0.000000001
 43
0.00000001
 40
0.0
 40
0.0
 40
0.0
 40
0.0
 40
0.279135804070915
 40
0.6395192966561921
 40
1.0
 40
1.0
 40
1.0
 40
1.0
 10
7.332412036617493
 20
7.260813652145839
 30
0.0
 10
7.332212435333967
 20
7.259246112054461
 30
0.0
 10
7.331755135085878
 20
7.255654770054983
 30
0.0
 10
7.343487396869811
 20
7.244906366433203
 30
0.0
 10
7.358962581155649
 20
7.235373853689064
 30
0.0
 10
7.366701216736717
 20
7.230606954572635
 30
0.0
  0
SPLINE
  5
13D
330
1F
100
AcDbEntity
  8
0
  6
Continuous
 62
     7
370
    15
100
AcDbSpline
210
0.0
220
0.0
230
1.0
 70
     8
 71
     3
 72
    10
 73
     6
 74
     0
 42
0.000000001
 43
0.00000001
 40
0.0
 40
0.0
 40
0.0
 40
0.0
 40
0.2643096438617876
 40
0.6321544615813124
 40
1.0
 40
1.0
 40
1.0
 40
1.0
 10
5.709595463720412
 20
3.39797370016807
 30
0.0
 10
5.70898137512982
 20
3.395404091055746
 30
0.0
 10
5.707512647630223
 20
3.389258307492414
 30
0.0
 10
5.718366969189876
 20
3.376057161226728
 30
0.0
 10
5.733868295186193
 20
3.366040683290764
 30
0.0
 10
5.741618965777079
 20
3.361032439416596
 30
0.0
  0
ARC
  5
13E
330
1F
100
AcDbEntity
  8
0
  6
Continuous
 62
     7
370
    15
100
AcDbCircle
 10
7.915773564
 20
7.783572278
 30
0.0
 40
0.3077557434469302
100
AcDbArc
 50
147.3985244072
 51
175.2483407496
  0
SPLINE
  5
13F
330
1F
100
AcDbEntity
  8
0
  6
Continuous
 62
     7
370
    15
100
AcDbSpline
210
0.0
220
0.0
230
1.0
 70
     8
 71
     3
 72
    10
 73
     6
 74
     0
 42
0.000000001
 43
0.00000001
 40
0.0
 40
0.0
 40
0.0
 40
0.0
 40
0.5
 40
0.5
 40
1.0
 40
1.0
 40
1.0
 40
1.0
 10
7.656508270618079
 20
7.949388758669202
 30
0.0
 10
7.659868370139335
 20
7.939983935609315
 30
0.0
 10
7.664639040249851
 20
7.930730207544657
 30
0.0
 10
7.677150951892333
 20
7.912521019867063
 30
0.0
 10
7.684521396351766
 20
7.904073743557548
 30
0.0
 10
7.693197838698113
 20
7.896422817678531
 30
0.0
  0
SPLINE
  5
140
330
1F
100
AcDbEntity
  8
0
  6
Continuous
 62
     7
370
    15
100
AcDbSpline
210
0.0
220
0.0
230
1.0
 70
     8
 71
     3
 72
    18
 73
    14
 74
     0
 42
0.000000001
 43
0.00000001
 40
0.0
 40
0.0
 40
0.0
 40
0.0
 40
0.2499999999999956
 40
0.2499999999999956
 40
0.3749999999999939
 40
0.3749999999999939
 40
0.4999999999999922
 40
0.4999999999999922
 40
0.750000000000002
 40
0.750000000000002
 40
0.875000000000001
 40
0.875000000000001
 40
1.0
 40
1.0
 40
1.0
 40
1.0
 10
7.693197838698113
 20
7.896422817678531
 30
0.0
 10
7.700809109856107
 20
7.889711164543487
 30
0.0
 10
7.708027785635989
 20
7.882886999309012
 30
0.0
 10
7.718413607960168
 20
7.872598560824199
 30
0.0
 10
7.72181983935033
 20
7.869139935607053
 30
0.0
 10
7.728332807447156
 20
7.862401980350912
 30
0.0
 10
7.731456937810827
 20
7.859106194583804
 30
0.0
 10
7.74048711958715
 20
7.849460812861099
 30
0.0
 10
7.746095960721282
 20
7.843299845529404
 30
0.0
 10
7.753675400196149
 20
7.835051545654055
 30
0.0
 10
7.756076875877115
 20
7.832452888870005
 30
0.0
 10
7.760676114048056
 20
7.827572727173202
 30
0.0
 10
7.762900410622422
 20
7.825269039669414
 30
0.0
 10
7.764990110090898
 20
7.823184696363676
 30
0.0
  0
SPLINE
  5
141
330
1F
100
AcDbEntity
  8
0
  6
Continuous
 62
     7
370
    15
100
AcDbSpline
210
0.0
220
0.0
230
1.0
 70
     8
 71
     3
 72
    22
 73
    18
 74
     0
 42
0.000000001
 43
0.00000001
 40
0.0
 40
0.0
 40
0.0
 40
0.0
 40
0.125
 40
0.125
 40
0.25
 40
0.25
 40
0.375
 40
0.375
 40
0.5
 40
0.5
 40
0.625
 40
0.625
 40
0.75
 40
0.75
 40
0.875
 40
0.875
 40
1.0
 40
1.0
 40
1.0
 40
1.0
 10
7.609075545068873
 20
7.809065861282984
 30
0.0
 10
7.614135013704531
 20
7.806145092209938
 30
0.0
 10
7.619603768818768
 20
7.803493218178138
 30
0.0
 10
7.63132637748638
 20
7.798705975400864
 30
0.0
 10
7.637654624196819
 20
7.796551790048937
 30
0.0
 10
7.65075078957012
 20
7.792906914925916
 30
0.0
 10
7.657488248326231
 20
7.791414344116236
 30
0.0
 10
7.671338843523099
 20
7.789086829963432
 30
0.0
 10
7.678495385048442
 20
7.788256448502472
 30
0.0
 10
7.692583037507036
 20
7.787343421238766
 30
0.0
 10
7.699585707038309
 20
7.787244405376974
 30
0.0
 10
7.713507458315213
 20
7.787785640802618
 30
0.0
 10
7.720315546541658
 20
7.788427858058498
 30
0.0
 10
7.733298083432716
 20
7.790410867930126
 30
0.0
 10
7.739561418957677
 20
7.79176336321374
 30
0.0
 10
7.751382662712182
 20
7.795176215656048
 30
0.0
 10
7.756925625706455
 20
7.797240379536138
 30
0.0
 10
7.761891587997773
 20
7.799570092198751
 30
0.0
  0
SPLINE
  5
142
330
1F
100
AcDbEntity
  8
0
  6
Continuous
 62
     7
370
    15
100
AcDbSpline
210
0.0
220
0.0
230
1.0
 70
     8
 71
     3
 72
    10
 73
     6
 74
     0
 42
0.000000001
 43
0.00000001
 40
0.0
 40
0.0
 40
0.0
 40
0.0
 40
0.5
 40
0.5
 40
1.0
 40
1.0
 40
1.0
 40
1.0
 10
9.90446596404242
 20
9.172960734566237
 30
0.0
 10
9.899752293740887
 20
9.182938562276417
 30
0.0
 10
9.893184410410049
 20
9.191968690299687
 30
0.0
 10
9.877017184138419
 20
9.208010154226962
 30
0.0
 10
9.867808227004272
 20
9.214645243883577
 30
0.0
 10
9.85758532485348
 20
9.220043495432746
 30
0.0
  0
LINE
  5
143
330
1F
100
AcDbEntity
  8
0
  6
Continuous
 62
     7
370
    15
100
AcDbLine
 10
7.6931978387
 20
7.8964228177
 30
0.0
 11
9.904465964
 21
9.1729607346
 31
0.0
  0
SPLINE
  5
144
330
1F
100
AcDbEntity
  8
0
  6
Continuous
 62
     7
370
    15
100
AcDbSpline
210
0.0
220
0.0
230
1.0
 70
     8
 71
     3
 72
    28
 73
    24
 74
     0
 42
0.000000001
 43
0.00000001
 40
0.0
 40
0.0
 40
0.0
 40
0.0
 40
0.1249999999999993
 40
0.1249999999999993
 40
0.2499999999999986
 40
0.2499999999999986
 40
0.3749999999999979
 40
0.3749999999999979
 40
0.437499999999998
 40
0.437499999999998
 40
0.499999999999998
 40
0.499999999999998
 40
0.5624999999999981
 40
0.5624999999999981
 40
0.6249999999999981
 40
0.6249999999999981
 40
0.6874999999999982
 40
0.6874999999999982
 40
0.7499999999999982
 40
0.7499999999999982
 40
0.8749999999999991
 40
0.8749999999999991
 40
1.0
 40
1.0
 40
1.0
 40
1.0
 10
7.391958344005673
 20
8.101932620257069
 30
0.0
 10
7.407027703173142
 20
8.104311758346178
 30
0.0
 10
7.422400776180759
 20
8.106031342926489
 30
0.0
 10
7.453245979753982
 20
8.107955134762138
 30
0.0
 10
7.468769739418968
 20
8.108175966051258
 30
0.0
 10
7.49967527249168
 20
8.106669642022414
 30
0.0
 10
7.515069902595093
 20
8.10496831849725
 30
0.0
 10
7.537508879242417
 20
8.100031553860378
 30
0.0
 10
7.544854297017496
 20
8.097971027873452
 30
0.0
 10
7.558704182592276
 20
8.092952313469757
 30
0.0
 10
7.565256833141367
 20
8.08998178080826
 30
0.0
 10
7.577497589553371
 20
8.083015779045581
 30
0.0
 10
7.583204197230139
 20
8.078988938668274
 30
0.0
 10
7.593455589416094
 20
8.070237113579457
 30
0.0
 10
7.598062123489355
 20
8.06549096922027
 30
0.0
 10
7.606527306627752
 20
8.055389540940803
 30
0.0
 10
7.610400844775207
 20
8.050012722326136
 30
0.0
 10
7.617565033663906
 20
8.038892927418683
 30
0.0
 10
7.620864081126171
 20
8.033145645647782
 30
0.0
 10
7.630231635686902
 20
8.015424236649004
 30
0.0
 10
7.635788766269669
 20
8.00297654510288
 30
0.0
 10
7.646421577139042
 20
7.976996407665279
 30
0.0
 10
7.651489648243069
 20
7.96343574005853
 30
0.0
 10
7.656508270618079
 20
7.949388758669202
 30
0.0
  0
SPLINE
  5
145
330
1F
100
AcDbEntity
  8
0
  6
Continuous
 62
     7
370
    15
100
AcDbSpline
210
0.0
220
0.0
230
1.0
 70
     8
 71
     3
 72
    10
 73
     6
 74
     0
 42
0.000000001
 43
0.00000001
 40
0.0
 40
0.0
 40
0.0
 40
0.0
 40
0.5
 40
0.5
 40
1.0
 40
1.0
 40
1.0
 40
1.0
 10
7.345520824907723
 20
8.09689251948631
 30
0.0
 10
7.350163497540448
 20
8.096857692716021
 30
0.0
 10
7.356636545195385
 20
8.097353291586087
 30
0.0
 10
7.372643596170305
 20
8.099106447905221
 30
0.0
 10
7.381783951508203
 20
8.100326295498643
 30
0.0
 10
7.391958344005674
 20
8.101932620257069
 30
0.0
  0
LINE
  5
146
330
1F
100
AcDbEntity
  8
0
  6
Continuous
 62
     7
370
    15
100
AcDbLine
 10
9.5569354462
 20
9.3735150067
 30
0.0
 11
7.3455208249
 21
8.0968925195
 31
0.0
  0
SPLINE
  5
147
330
1F
100
AcDbEntity
  8
0
  6
Continuous
 62
     7
370
    15
100
AcDbSpline
210
0.0
220
0.0
230
1.0
 70
     8
 71
     3
 72
    10
 73
     6
 74
     0
 42
0.000000001
 43
0.00000001
 40
0.0
 40
0.0
 40
0.0
 40
0.0
 40
0.5
 40
0.5
 40
1.0
 40
1.0
 40
1.0
 40
1.0
 10
9.593199538909499
 20
9.372682113411548
 30
0.0
 10
9.589949536407733
 20
9.375057139994066
 30
0.0
 10
9.585275067782733
 20
9.376423156954711
 30
0.0
 10
9.572917497673012
 20
9.376791630555228
 30
0.0
 10
9.565600846048534
 20
9.375793178536522
 30
0.0
 10
9.55693544619299
 20
9.3735150066806
 30
0.0
  0
SPLINE
  5
148
330
1F
100
AcDbEntity
  8
0
  6
Continuous
 62
     7
370
    15
100
AcDbSpline
210
0.0
220
0.0
230
1.0
 70
     8
 71
     3
 72
    26
 73
    22
 74
     0
 42
0.000000001
 43
0.00000001
 40
0.0
 40
0.0
 40
0.0
 40
0.0
 40
0.1250000000000025
 40
0.1250000000000025
 40
0.2500000000000051
 40
0.2500000000000051
 40
0.3750000000000075
 40
0.3750000000000075
 40
0.4375000000000075
 40
0.4375000000000075
 40
0.5000000000000074
 40
0.5000000000000074
 40
0.5625000000000071
 40
0.5625000000000071
 40
0.6250000000000069
 40
0.6250000000000069
 40
0.7500000000000046
 40
0.7500000000000046
 40
0.8750000000000023
 40
0.8750000000000023
 40
1.0
 40
1.0
 40
1.0
 40
1.0
 10
9.85758532485348
 20
9.220043495432746
 30
0.0
 10
9.842429902711645
 20
9.22804638735607
 30
0.0
 10
9.826941971925436
 20
9.235496226095075
 30
0.0
 10
9.795933788203365
 20
9.249416559238941
 30
0.0
 10
9.780347023050815
 20
9.255912265229123
 30
0.0
 10
9.749357098008115
 20
9.268486099181859
 30
0.0
 10
9.733941445692402
 20
9.274549158543678
 30
0.0
 10
9.711506245095912
 20
9.284065573826133
 30
0.0
 10
9.70408178766777
 20
9.28734810815756
 30
0.0
 10
9.69008086717682
 20
9.294040429770515
 30
0.0
 10
9.683490053131942
 20
9.297457317040067
 30
0.0
 10
9.67123456700646
 20
9.304492477204018
 30
0.0
 10
9.6655266738005
 20
9.308143803629282
 30
0.0
 10
9.655223240057264
 20
9.315429058638204
 30
0.0
 10
9.650629256489436
 20
9.319045135490697
 30
0.0
 10
9.638026531450793
 20
9.329707867221622
 30
0.0
 10
9.6311188066154
 20
9.336593727933527
 30
0.0
 10
9.618741566426898
 20
9.349163946295572
 30
0.0
 10
9.613290186401045
 20
9.354848127150648
 30
0.0
 10
9.602927037236999
 20
9.364840053145318
 30
0.0
 10
9.598032831803176
 20
9.369150054867799
 30
0.0
 10
9.593199538909499
 20
9.372682113411548
 30
0.0
  0
SPLINE
  5
149
330
1F
100
AcDbEntity
  8
0
  6
Continuous
 62
     7
370
    15
100
AcDbSpline
210
0.0
220
0.0
230
1.0
 70
    11
 71
     3
 72
    54
 73
    50
 74
     0
 42
0.000000001
 43
0.00000001
 40
0.0
 40
0.0
 40
0.0
 40
0.0
 40
0.0312499999999998
 40
0.0312499999999998
 40
0.0624999999999995
 40
0.0624999999999995
 40
0.0937499999999993
 40
0.0937499999999993
 40
0.1249999999999991
 40
0.1249999999999991
 40
0.1874999999999989
 40
0.1874999999999989
 40
0.2499999999999987
 40
0.2499999999999987
 40
0.2812499999999984
 40
0.2812499999999984
 40
0.3124999999999982
 40
0.3124999999999982
 40
0.3749999999999987
 40
0.3749999999999987
 40
0.4062499999999979
 40
0.4062499999999979
 40
0.4374999999999972
 40
0.4374999999999972
 40
0.4687499999999964
 40
0.4687499999999964
 40
0.4999999999999957
 40
0.4999999999999957
 40
0.5624999999999967
 40
0.5624999999999967
 40
0.6249999999999974
 40
0.6249999999999974
 40
0.6562499999999972
 40
0.6562499999999972
 40
0.687499999999997
 40
0.687499999999997
 40
0.7499999999999963
 40
0.7499999999999963
 40
0.7812499999999961
 40
0.7812499999999961
 40
0.8124999999999962
 40
0.8124999999999962
 40
0.8437499999999963
 40
0.8437499999999963
 40
0.8749999999999963
 40
0.8749999999999963
 40
0.9374999999999982
 40
0.9374999999999982
 40
1.0
 40
1.0
 40
1.0
 40
1.0
 10
7.849881594567442
 20
8.198931174539464
 30
0.0
 10
7.847304198117151
 20
8.197443275239536
 30
0.0
 10
7.844517207584628
 20
8.19616277413781
 30
0.0
 10
7.838541486290779
 20
8.193995143764475
 30
0.0
 10
7.835314539661463
 20
8.193101672144564
 30
0.0
 10
7.828638798697475
 20
8.1917626536334
 30
0.0
 10
7.825203909745049
 20
8.191313163704885
 30
0.0
 10
7.818140891981981
 20
8.190832728303624
 30
0.0
 10
7.814493071454693
 20
8.190807280332335
 30
0.0
 10
7.803717565563725
 20
8.1913440271696
 30
0.0
 10
7.796470015161077
 20
8.192533514148023
 30
0.0
 10
7.783203606370866
 20
8.196204757939295
 30
0.0
 10
7.777045489877841
 20
8.198722784960792
 30
0.0
 10
7.769408277158825
 20
8.20312523203321
 30
0.0
 10
7.767077063097545
 20
8.204727023745798
 30
0.0
 10
7.763072014691847
 20
8.208049431900154
 30
0.0
 10
7.761377749919377
 20
8.209776398058906
 30
0.0
 10
7.75722554756379
 20
8.215173202551334
 30
0.0
 10
7.755791919802377
 20
8.218943084016392
 30
0.0
 10
7.755787688543278
 20
8.224694847785262
 30
0.0
 10
7.75614259161568
 20
8.226580708755847
 30
0.0
 10
7.757537526303416
 20
8.23031279980715
 30
0.0
 10
7.758594828552981
 20
8.232178929545428
 30
0.0
 10
7.761356220688763
 20
8.235775886335757
 30
0.0
 10
7.763047138539712
 20
8.237502791286103
 30
0.0
 10
7.76704581200986
 20
8.240826185756012
 30
0.0
 10
7.769374568369783
 20
8.242429462628882
 30
0.0
 10
7.777005519685495
 20
8.24683761270736
 30
0.0
 10
7.783159053820186
 20
8.24936102407673
 30
0.0
 10
7.796424391910326
 20
8.253045754364246
 30
0.0
 10
7.803668660365607
 20
8.254241636506443
 30
0.0
 10
7.814447044193501
 20
8.254786993602156
 30
0.0
 10
7.818096072800184
 20
8.254764026207807
 30
0.0
 10
7.825156893454037
 20
8.25428863640985
 30
0.0
 10
7.828592105909553
 20
8.253841593811213
 30
0.0
 10
7.83861046806138
 20
8.251839551618547
 30
0.0
 10
7.84468609031091
 20
8.249660464536845
 30
0.0
 10
7.852425402227864
 20
8.245204133410045
 30
0.0
 10
7.854708796651084
 20
8.243561522236629
 30
0.0
 10
7.858707422021515
 20
8.239978962015519
 30
0.0
 10
7.86043649437006
 20
8.238015304574555
 30
0.0
 10
7.863204076438611
 20
8.233910384619247
 30
0.0
 10
7.86424764879797
 20
8.231777923182502
 30
0.0
 10
7.865660724817843
 20
8.227370671027503
 30
0.0
 10
7.866022487759271
 20
8.22508404461619
 30
0.0
 10
7.866030919719154
 20
8.218327768108676
 30
0.0
 10
7.864595987686572
 20
8.213783698200492
 30
0.0
 10
7.859119634779752
 20
8.205614346674176
 30
0.0
 10
7.855036387468025
 20
8.201906973139314
 30
0.0
 10
7.849881594567442
 20
8.198931174539462
 30
0.0
  0
LINE
  5
14A
330
1F
100
AcDbEntity
  8
0
  6
Continuous
 62
     7
370
    15
100
AcDbLine
 10
8.983280553
 20
8.9958927341
 30
0.0
 11
8.4459516102
 21
8.685699338
 31
0.0
  0
ELLIPSE
  5
14B
330
1F
100
AcDbEntity
  8
0
  6
Continuous
 62
     7
370
    15
100
AcDbEllipse
 10
8.435850173
 20
8.2152153699
 30
0.0
 11
-0.04334160201437065
 21
0.471478059660086
 31
0.0
210
0.0
220
0.0
230
1.0
 40
0.7140787797
 41
5.506779644933245
 42
6.125391703648393
  0
LINE
  5
14C
330
1F
100
AcDbEntity
  8
0
  6
Continuous
 62
     7
370
    15
100
AcDbLine
 10
9.1781525005
 20
8.8834548737
 30
0.0
 11
8.6408416907
 21
8.5732719456
 31
0.0
  0
ARC
  5
14D
330
1F
100
AcDbEntity
  8
0
  6
Continuous
 62
     7
370
    15
100
AcDbCircle
 10
8.8776546598
 20
8.5877366417
 30
0.0
 40
0.4216019747373907
100
AcDbArc
 50
44.5406941319
 51
75.4908491339
  0
LINE
  5
14E
330
1F
100
AcDbEntity
  8
0
  6
Continuous
 62
     7
370
    15
100
AcDbLine
 10
7.6090755451
 20
7.8090658613
 30
0.0
 11
7.3446064734
 21
7.9617406066
 31
0.0
  0
ARC
  5
14F
330
1F
100
AcDbEntity
  8
0
  6
Continuous
 62
     7
370
    15
100
AcDbCircle
 10
7.6512456822
 20
7.9362616946
 30
0.0
 40
0.3076959202948242
100
AcDbArc
 50
147.4235692916
 51
175.2501561365
  0
SPLINE
  5
150
330
1F
100
AcDbEntity
  8
0
  6
Continuous
 62
     7
370
    15
100
AcDbSpline
210
0.0
220
0.0
230
1.0
 70
     8
 71
     3
 72
    18
 73
    14
 74
     0
 42
0.000000001
 43
0.00000001
 40
0.0
 40
0.0
 40
0.0
 40
0.0
 40
0.249999999999981
 40
0.249999999999981
 40
0.3749999999999761
 40
0.3749999999999761
 40
0.4999999999999712
 40
0.4999999999999712
 40
0.749999999999973
 40
0.749999999999973
 40
0.8749999999999866
 40
0.8749999999999866
 40
1.0
 40
1.0
 40
1.0
 40
1.0
 10
9.90446596404242
 20
9.172960734566237
 30
0.0
 10
9.908559100404743
 20
9.16429644393812
 30
0.0
 10
9.911607049806527
 20
9.155131573417883
 30
0.0
 10
9.914686673177695
 20
9.140704736831744
 30
0.0
 10
9.915461966498484
 20
9.13574870545446
 30
0.0
 10
9.916464046634442
 20
9.125855975737277
 30
0.0
 10
9.916698392637054
 20
9.120900376593037
 30
0.0
 10
9.916623325584874
 20
9.10600831033662
 30
0.0
 10
9.91550836393825
 20
9.095945349549673
 30
0.0
 10
9.912366752466369
 20
9.081431065224974
 30
0.0
 10
9.911077332569578
 20
9.076670605070744
 30
0.0
 10
9.908021602005597
 20
9.067298192911549
 30
0.0
 10
9.906229526172766
 20
9.062632768347788
 30
0.0
 10
9.904248697570022
 20
9.058152391888854
 30
0.0
  0
ARC
  5
151
330
1F
100
AcDbEntity
  8
0
  6
Continuous
 62
     7
370
    15
100
AcDbCircle
 10
9.0266291404
 20
7.5974084908
 30
0.0
 40
1.433267957545548
100
AcDbArc
 50
171.5078058467
 51
193.1895961649
  0
SPLINE
  5
152
330
1F
100
AcDbEntity
  8
0
  6
Continuous
 62
     7
370
    15
100
AcDbSpline
210
0.0
220
0.0
230
1.0
 70
     8
 71
     3
 72
    22
 73
    18
 74
     0
 42
0.000000001
 43
0.00000001
 40
0.0
 40
0.0
 40
0.0
 40
0.0
 40
0.125
 40
0.125
 40
0.25
 40
0.25
 40
0.375
 40
0.375
 40
0.5
 40
0.5
 40
0.625
 40
0.625
 40
0.75
 40
0.75
 40
0.875
 40
0.875
 40
1.0
 40
1.0
 40
1.0
 40
1.0
 10
7.631170288440346
 20
7.270373889261915
 30
0.0
 10
7.636230835256229
 20
7.267452497768674
 30
0.0
 10
7.641678489435067
 20
7.265036351896456
 30
0.0
 10
7.653316362547288
 20
7.261172146339583
 30
0.0
 10
7.659580112839951
 20
7.259716523320891
 30
0.0
 10
7.672505176307335
 20
7.257890126752609
 30
0.0
 10
7.679137789857685
 20
7.257508255755233
 30
0.0
 10
7.692740971210378
 20
7.257794035907963
 30
0.0
 10
7.699752331650148
 20
7.25847957731218
 30
0.0
 10
7.713523803869437
 20
7.260859626857987
 30
0.0
 10
7.72035479665016
 20
7.262549594823361
 30
0.0
 10
7.7339057378721
 20
7.266950046763952
 30
0.0
 10
7.740514623932021
 20
7.269633089290343
 30
0.0
 10
7.753090399459572
 20
7.275804388450671
 30
0.0
 10
7.759142707047322
 20
7.279332346823016
 30
0.0
 10
7.770529208081864
 20
7.28716840178839
 30
0.0
 10
7.775849767287454
 20
7.291476286173353
 30
0.0
 10
7.780596613724875
 20
7.295988562063971
 30
0.0
  0
LINE
  5
153
330
1F
100
AcDbEntity
  8
0
  6
Continuous
 62
     7
370
    15
100
AcDbLine
 10
7.6311702884
 20
7.2703738893
 30
0.0
 11
7.3667012167
 21
7.4230486346
 31
0.0
  0
ARC
  5
154
330
1F
100
AcDbEntity
  8
0
  6
Continuous
 62
     7
370
    15
100
AcDbCircle
 10
8.7621600687
 20
7.7500832361
 30
0.0
 40
1.433267957545528
100
AcDbArc
 50
171.5078058467
 51
193.1895961649
  0
SPLINE
  5
155
330
1F
100
AcDbEntity
  8
0
  6
Continuous
 62
     7
370
    15
100
AcDbSpline
210
0.0
220
0.0
230
1.0
 70
     8
 71
     3
 72
    10
 73
     6
 74
     0
 42
0.000000001
 43
0.00000001
 40
0.0
 40
0.0
 40
0.0
 40
0.0
 40
0.1708067867962237
 40
0.5854005703966556
 40
1.0
 40
1.0
 40
1.0
 40
1.0
 10
7.314298542806613
 20
8.004371735346627
 30
0.0
 10
7.31382094951578
 20
8.001849223619235
 30
0.0
 10
7.312184109492526
 20
7.993203900844038
 30
0.0
 10
7.321746327304533
 20
7.977719456011637
 30
0.0
 10
7.336986390088316
 20
7.96706691391782
 30
0.0
 10
7.344606473365243
 20
7.96174060660416
 30
0.0
  0
SPLINE
  5
156
330
1F
100
AcDbEntity
  8
0
  6
Continuous
 62
     7
370
    15
100
AcDbSpline
210
0.0
220
0.0
230
1.0
 70
     8
 71
     3
 72
     9
 73
     5
 74
     0
 42
0.000000001
 43
0.00000001
 40
0.0
 40
0.0
 40
0.0
 40
0.0
 40
0.1145445540669178
 40
1.0
 40
1.0
 40
1.0
 40
1.0
 10
7.335126459995893
 20
8.091262260444795
 30
0.0
 10
7.33510434696344
 20
8.091759298730837
 30
0.0
 10
7.334911295162478
 20
8.096098555975248
 30
0.0
 10
7.340538333323539
 20
8.096519655032653
 30
0.0
 10
7.345520824907723
 20
8.09689251948631
 30
0.0
  0
SPLINE
  5
157
330
1F
100
AcDbEntity
  8
0
  6
Continuous
 62
     7
370
    15
100
AcDbSpline
210
0.0
220
0.0
230
1.0
 70
     8
 71
     3
 72
     9
 73
     5
 74
     0
 42
0.000000001
 43
0.00000001
 40
0.0
 40
0.0
 40
0.0
 40
0.0
 40
0.4596422189965787
 40
1.0
 40
1.0
 40
1.0
 40
1.0
 10
7.336432965450059
 20
7.462287801670473
 30
0.0
 10
7.338764456613712
 20
7.455014362853984
 30
0.0
 10
7.343836860904036
 20
7.439190231571245
 30
0.0
 10
7.358680396681669
 20
7.428711109650857
 30
0.0
 10
7.366701216736716
 20
7.423048634583091
 30
0.0
  0
LINE
  5
158
330
1F
100
AcDbEntity
  8
0
  6
Continuous
 62
     7
370
    15
100
AcDbLine
 10
9.5399126452
 20
9.3648150173
 30
0.0
 11
9.5569354462
 21
9.3735150067
 31
0.0
  0
ARC
  5
159
330
1F
100
AcDbEntity
  8
0
  6
Continuous
 62
     7
370
    15
100
AcDbCircle
 10
7.3655722623
 20
7.1741530493
 30
0.0
 40
0.2824902857202
100
AcDbArc
 50
340.0855636518
 51
19.9144363482
  0
ARC
  5
15A
330
1F
100
AcDbEntity
  8
0
  6
Continuous
 62
     7
370
    15
100
AcDbCircle
 10
7.1011031906
 20
7.3268277946
 30
0.0
 40
0.2824902857202133
100
AcDbArc
 50
340.0855636518
 51
19.9144363482
  0
LINE
  5
15B
330
1F
100
AcDbEntity
  8
0
  6
Continuous
 62
     7
370
    15
100
AcDbLine
 10
8.983280553
 20
8.770957693
 30
0.0
 11
8.983280553
 21
8.9958927341
 31
0.0
  0
SPLINE
  5
15C
330
1F
100
AcDbEntity
  8
0
  6
Continuous
 62
     7
370
    15
100
AcDbSpline
210
0.0
220
0.0
230
1.0
 70
     8
 71
     3
 72
    11
 73
     7
 74
     0
 42
0.000000001
 43
0.00000001
 40
0.0
 40
0.0
 40
0.0
 40
0.0
 40
0.0147900824724298
 40
0.3209821205902301
 40
0.8023241973631657
 40
1.0
 40
1.0
 40
1.0
 40
1.0
 10
8.345617078946644
 20
7.150776399019231
 30
0.0
 10
8.345867887118072
 20
7.150829687022895
 30
0.0
 10
8.35131105749096
 20
7.151986171204098
 30
0.0
 10
8.362983480079167
 20
7.155935790894963
 30
0.0
 10
8.373567473289304
 20
7.162996431769614
 30
0.0
 10
8.373434089803094
 20
7.169820723903917
 30
0.0
 10
8.37339525917949
 20
7.171807413011794
 30
0.0
  0
SPLINE
  5
15D
330
1F
100
AcDbEntity
  8
0
  6
Continuous
 62
     7
370
    15
100
AcDbSpline
210
0.0
220
0.0
230
1.0
 70
     8
 71
     3
 72
    11
 73
     7
 74
     0
 42
0.000000001
 43
0.00000001
 40
0.0
 40
0.0
 40
0.0
 40
0.0
 40
0.0082992352279177
 40
0.3862688148558561
 40
0.8969161717917459
 40
1.0
 40
1.0
 40
1.0
 40
1.0
 10
8.140665035163197
 20
6.433463721866405
 30
0.0
 10
8.140780620607774
 20
6.433435270467935
 30
0.0
 10
8.146160279271015
 20
6.432111065566411
 30
0.0
 10
8.156279170038312
 20
6.430297265328027
 30
0.0
 10
8.164248603474249
 20
6.430056438156396
 30
0.0
 10
8.163145629254918
 20
6.432595109787835
 30
0.0
 10
8.162960370940374
 20
6.433021511438373
 30
0.0
  0
SPLINE
  5
15E
330
1F
100
AcDbEntity
  8
0
  6
Continuous
 62
     7
370
    15
100
AcDbSpline
210
0.0
220
0.0
230
1.0
 70
     8
 71
     3
 72
    11
 73
     7
 74
     0
 42
0.000000001
 43
0.00000001
 40
0.0
 40
0.0
 40
0.0
 40
0.0
 40
0.0163500525921116
 40
0.3058432246590302
 40
0.7671304202891454
 40
1.0
 40
1.0
 40
1.0
 40
1.0
 10
8.483040859743666
 20
7.36835853777887
 30
0.0
 10
8.483055332760928
 20
7.368017328107909
 30
0.0
 10
8.48332606426133
 20
7.361634677932081
 30
0.0
 10
8.482241945373614
 20
7.346794568640686
 30
0.0
 10
8.476911818630576
 20
7.330352441992694
 30
0.0
 10
8.468383664158205
 20
7.325277346041156
 30
0.0
 10
8.46552271427161
 20
7.323574797707393
 30
0.0
  0
ARC
  5
15F
330
1F
100
AcDbEntity
  8
0
  6
Continuous
 62
     7
370
    15
100
AcDbCircle
 10
8.6625041655
 20
8.0668623357
 30
0.0
 40
0.198546712620803
100
AcDbArc
 50
307.8968361868
 51
352.1085403459
  0
SPLINE
  5
160
330
1F
100
AcDbEntity
  8
0
  6
Continuous
 62
     7
370
    15
100
AcDbSpline
210
0.0
220
0.0
230
1.0
 70
     8
 71
     3
 72
    11
 73
     7
 74
     0
 42
0.000000001
 43
0.00000001
 40
0.0
 40
0.0
 40
0.0
 40
0.0
 40
0.0065353514358677
 40
0.326543493801723
 40
0.7506709399752429
 40
0.9999999999999999
 40
0.9999999999999999
 40
0.9999999999999999
 40
0.9999999999999999
 10
9.31751426888354
 20
7.850089782937455
 30
0.0
 10
9.317550691404737
 20
7.849961761986948
 30
0.0
 10
9.319370568643476
 20
7.84356510392363
 30
0.0
 10
9.321420467188426
 20
7.830070353759361
 30
0.0
 10
9.319029340006848
 20
7.81538967612303
 30
0.0
 10
9.31164915739492
 20
7.811529862944123
 30
0.0
 10
9.308916844355387
 20
7.810100871490463
 30
0.0
  0
SPLINE
  5
161
330
1F
100
AcDbEntity
  8
0
  6
Continuous
 62
     7
370
    15
100
AcDbSpline
210
0.0
220
0.0
230
1.0
 70
     8
 71
     3
 72
    13
 73
     9
 74
     0
 42
0.000000001
 43
0.00000001
 40
0.0
 40
0.0
 40
0.0
 40
0.0
 40
0.0661725281745468
 40
0.2994357294243761
 40
0.5366224178623107
 40
0.7840164762439538
 40
0.996780300969942
 40
1.0
 40
1.0
 40
1.0
 40
1.0
 10
6.084902881115138
 20
2.982755888223105
 30
0.0
 10
6.087327318458537
 20
2.981822523076817
 30
0.0
 10
6.09829808207285
 20
2.977598974708518
 30
0.0
 10
6.118214207725829
 20
2.981811612438143
 30
0.0
 10
6.141630437218224
 20
2.99563089672341
 30
0.0
 10
6.159633762271961
 20
3.019476347857576
 30
0.0
 10
6.167959772125806
 20
3.039401476966966
 30
0.0
 10
6.171008905900424
 20
3.049243817940909
 30
0.0
 10
6.171054359798415
 20
3.049390539205273
 30
0.0
  0
SPLINE
  5
162
330
1F
100
AcDbEntity
  8
0
  6
Continuous
 62
     7
370
    15
100
AcDbSpline
210
0.0
220
0.0
230
1.0
 70
     8
 71
     3
 72
    12
 73
     8
 74
     0
 42
0.000000001
 43
0.00000001
 40
0.0
 40
0.0
 40
0.0
 40
0.0
 40
0.0128671231903383
 40
0.2387365745069093
 40
0.5999749422067472
 40
0.9610194593351297
 40
1.0
 40
1.0
 40
1.0
 40
1.0
 10
7.95729750114032
 20
5.672856616250291
 30
0.0
 10
7.95758891878891
 20
5.673126534511102
 30
0.0
 10
7.962995881180266
 20
5.678134597310347
 30
0.0
 10
7.975121758172705
 20
5.69165216625413
 30
0.0
 10
7.985933701632272
 20
5.714873194490191
 30
0.0
 10
7.989424049087494
 20
5.734639328153715
 30
0.0
 10
7.985366693677995
 20
5.743347873684527
 30
0.0
 10
7.984971323676914
 20
5.744196480057009
 30
0.0
  0
SPLINE
  5
163
330
1F
100
AcDbEntity
  8
0
  6
Continuous
 62
     7
370
    15
100
AcDbSpline
210
0.0
220
0.0
230
1.0
 70
     8
 71
     3
 72
    11
 73
     7
 74
     0
 42
0.000000001
 43
0.00000001
 40
0.0
 40
0.0
 40
0.0
 40
0.0
 40
0.0056741123816158
 40
0.3043550490064668
 40
0.7254031263305735
 40
1.0
 40
1.0
 40
1.0
 40
1.0
 10
7.579243850053084
 20
3.862321028217299
 30
0.0
 10
7.579199635890947
 20
3.862172328698313
 30
0.0
 10
7.576828022045638
 20
3.854196200214283
 30
0.0
 10
7.571621567508
 20
3.836612322976523
 30
0.0
 10
7.560927932013692
 20
3.81654855307806
 30
0.0
 10
7.549464606548093
 20
3.810036252850526
 30
0.0
 10
7.544939606646616
 20
3.807465606315503
 30
0.0
  0
SPLINE
  5
164
330
1F
100
AcDbEntity
  8
0
  6
Continuous
 62
     7
370
    15
100
AcDbSpline
210
0.0
220
0.0
230
1.0
 70
     8
 71
     3
 72
    11
 73
     7
 74
     0
 42
0.000000001
 43
0.00000001
 40
0.0
 40
0.0
 40
0.0
 40
0.0
 40
0.017643393868022
 40
0.3538257637285349
 40
0.8883573386844948
 40
1.0
 40
1.0
 40
1.0
 40
1.0
 10
7.929223334081038
 20
5.581101429200415
 30
0.0
 10
7.929353072219381
 20
5.580887564316729
 30
0.0
 10
7.931954878664743
 20
5.576598655597046
 30
0.0
 10
7.936597756442167
 20
5.567131928743065
 30
0.0
 10
7.939111489033021
 20
5.558250276084702
 30
0.0
 10
7.935633238181933
 20
5.556778484513846
 30
0.0
 10
7.935032283888275
 20
5.556524195935552
 30
0.0
  0
SPLINE
  5
165
330
1F
100
AcDbEntity
  8
0
  6
Continuous
 62
     7
370
    15
100
AcDbSpline
210
0.0
220
0.0
230
1.0
 70
     8
 71
     3
 72
    12
 73
     8
 74
     0
 42
0.000000001
 43
0.00000001
 40
0.0
 40
0.0
 40
0.0
 40
0.0
 40
0.003537828436209
 40
0.4883167317701531
 40
0.7187123975803198
 40
0.9548340530820416
 40
1.0
 40
1.0
 40
1.0
 40
1.0
 10
9.475145734625826
 20
8.334892622865064
 30
0.0
 10
9.475219965295913
 20
8.334861919035973
 30
0.0
 10
9.485465820590282
 20
8.330623953927052
 30
0.0
 10
9.498387085914782
 20
8.324909513139106
 30
0.0
 10
9.50763146686786
 20
8.320526368432374
 30
0.0
 10
9.511649473345116
 20
8.318439451976998
 30
0.0
 10
9.510362398147723
 20
8.319082781104456
 30
0.0
 10
9.510155734329109
 20
8.319186079539838
 30
0.0
  0
SPLINE
  5
166
330
1F
100
AcDbEntity
  8
0
  6
Continuous
 62
     7
370
    15
100
AcDbSpline
210
0.0
220
0.0
230
1.0
 70
     8
 71
     3
 72
    11
 73
     7
 74
     0
 42
0.000000001
 43
0.00000001
 40
0.0
 40
0.0
 40
0.0
 40
0.0
 40
0.255829353101736
 40
0.7039864196628165
 40
0.9832986224282123
 40
1.0
 40
1.0
 40
1.0
 40
1.0
 10
9.93907017432659
 20
9.061560715297295
 30
0.0
 10
9.939039391911892
 20
9.057684389949546
 30
0.0
 10
9.938954685439981
 20
9.047017590499358
 30
0.0
 10
9.927183589889495
 20
9.033445092564511
 30
0.0
 10
9.914873547186687
 20
9.024965295188645
 30
0.0
 10
9.90924014598204
 20
9.021990729213659
 30
0.0
 10
9.908922303941058
 20
9.021822901273454
 30
0.0
  0
LINE
  5
167
330
1F
100
AcDbEntity
  8
0
  6
Continuous
 62
     7
370
    15
100
AcDbLine
 10
9.5119148989
 20
8.3848638106
 30
0.0
 11
9.4802040193
 21
8.4031802717
 31
0.0
  0
SPLINE
  5
168
330
1F
100
AcDbEntity
  8
0
  6
Continuous
 62
     7
370
    15
100
AcDbSpline
210
0.0
220
0.0
230
1.0
 70
     8
 71
     3
 72
    11
 73
     7
 74
     0
 42
0.000000001
 43
0.00000001
 40
0.0
 40
0.0
 40
0.0
 40
0.0
 40
0.1455334388945372
 40
0.5438251400031089
 40
0.9955581278712132
 40
1.0
 40
1.0
 40
1.0
 40
1.0
 10
9.913356973126536
 20
8.61824729546231
 30
0.0
 10
9.91474605545732
 20
8.618624532047496
 30
0.0
 10
9.91993673808498
 20
8.62003417879473
 30
0.0
 10
9.918171441017812
 20
8.630933920356986
 30
0.0
 10
9.911024521949038
 20
8.642047069592628
 30
0.0
 10
9.905121016861825
 20
8.648384737182658
 30
0.0
 10
9.905063533170795
 20
8.64844644840679
 30
0.0
  0
ELLIPSE
  5
169
330
1F
100
AcDbEntity
  8
0
  6
Continuous
 62
     7
370
    15
100
AcDbEllipse
 10
9.4036471827
 20
8.3820080295
 30
0.0
 11
0.1082677171463651
 21
-0.06251178223402931
 31
0.0
210
0.0
220
0.0
230
1.0
 40
0.0000703729
 41
0.0000406322884936
 42
0.7854387986611422
  0
SPLINE
  5
16A
330
1F
100
AcDbEntity
  8
0
  6
Continuous
 62
     7
370
    15
100
AcDbSpline
210
0.0
220
0.0
230
1.0
 70
     8
 71
     3
 72
    11
 73
     7
 74
     0
 42
0.000000001
 43
0.00000001
 40
0.0
 40
0.0
 40
0.0
 40
0.0
 40
0.2853555614135285
 40
0.7137506206839177
 40
0.9886452808033137
 40
1.0
 40
1.0
 40
1.0
 40
1.0
 10
9.9392769022076
 20
8.753924236722119
 30
0.0
 10
9.93929096220308
 20
8.748891455600619
 30
0.0
 10
9.939326130014246
 20
8.736303123235748
 30
0.0
 10
9.927239077619328
 20
8.719376564124552
 30
0.0
 10
9.914840077539576
 20
8.708730582922533
 30
0.0
 10
9.90914808933117
 20
8.704817805100493
 30
0.0
 10
9.908922303941058
 20
8.704662596053213
 30
0.0
  0
SPLINE
  5
16B
330
1F
100
AcDbEntity
  8
0
  6
Continuous
 62
     7
370
    15
100
AcDbSpline
210
0.0
220
0.0
230
1.0
 70
     8
 71
     3
 72
    11
 73
     7
 74
     0
 42
0.000000001
 43
0.00000001
 40
0.0
 40
0.0
 40
0.0
 40
0.0
 40
0.0107008766328256
 40
0.3472806307233517
 40
0.857175907390932
 40
1.0
 40
1.0
 40
1.0
 40
1.0
 10
7.708504353349109
 20
4.723505582719739
 30
0.0
 10
7.708597066609236
 20
4.723381394552088
 30
0.0
 10
7.711605934065428
 20
4.719351056975986
 30
0.0
 10
7.716826192355893
 20
4.710283852846234
 30
0.0
 10
7.71926122340973
 20
4.701146739364224
 30
0.0
 10
7.715290535242686
 20
4.699432509954413
 30
0.0
 10
7.714421693346481
 20
4.699057412674473
 30
0.0
  0
SPLINE
  5
16C
330
1F
100
AcDbEntity
  8
0
  6
Continuous
 62
     7
370
    15
100
AcDbSpline
210
0.0
220
0.0
230
1.0
 70
     8
 71
     3
 72
    11
 73
     7
 74
     0
 42
0.000000001
 43
0.00000001
 40
0.0
 40
0.0
 40
0.0
 40
0.0
 40
0.0208546601917084
 40
0.3548907764990281
 40
0.8915008900783453
 40
1.0
 40
1.0
 40
1.0
 40
1.0
 10
7.589532738449028
 20
4.539369223199325
 30
0.0
 10
7.589804538883013
 20
4.539306754548958
 30
0.0
 10
7.594429858412703
 20
4.538243704485735
 30
0.0
 10
7.604012427697448
 20
4.536702370039622
 30
0.0
 10
7.611961686580072
 20
4.536588858144107
 30
0.0
 10
7.611075974013032
 20
4.539266783453628
 30
0.0
 10
7.610927008501968
 20
4.539717176196336
 30
0.0
  0
SPLINE
  5
16D
330
1F
100
AcDbEntity
  8
0
  6
Continuous
 62
     7
370
    15
100
AcDbSpline
210
0.0
220
0.0
230
1.0
 70
     8
 71
     3
 72
    14
 73
    10
 74
     0
 42
0.000000001
 43
0.00000001
 40
0.0
 40
0.0
 40
0.0
 40
0.0
 40
0.0028795850714194
 40
0.0585844638076537
 40
0.2268316136620684
 40
0.4803881601010277
 40
0.7297339024072761
 40
0.9772110227321196
 40
1.0
 40
1.0
 40
1.0
 40
1.0
 10
7.580870373979245
 20
3.877749599215641
 30
0.0
 10
7.580890866671429
 20
3.877871606919587
 30
0.0
 10
7.5813077855517
 20
3.880353824231737
 30
0.0
 10
7.583667920784799
 20
3.890353736585838
 30
0.0
 10
7.589816045645184
 20
3.912521664110077
 30
0.0
 10
7.594202180278105
 20
3.94485853573752
 30
0.0
 10
7.58924805426288
 20
3.978012777711181
 30
0.0
 10
7.581288369349521
 20
3.999766986039064
 30
0.0
 10
7.57323685418516
 20
4.006748391347963
 30
0.0
 10
7.57255794625817
 20
4.007337067057937
 30
0.0
  0
LWPOLYLINE
  5
16E
330
1F
100
AcDbEntity
  8
0
  6
Continuous
 62
     8
370
    15
100
AcDbPolyline
 90
       30
 70
   128
 43
0.0
 10
7.1331582762
 20
5.0379312485
 10
7.1545670329
 20
5.0278915399
 10
7.1817525463
 20
5.0205117564
 10
7.2109711672
 20
5.0178991714
 10
7.2418682212
 20
5.0200854981
 10
7.27406866
 20
5.0270441976
 10
7.3071816137
 20
5.0386908006
 10
7.3408051361
 20
5.0548839332
 10
7.374531083
 20
5.0754270326
 10
7.4079500673
 20
5.1000707335
 10
7.4406564276
 20
5.1285158947
 10
7.4722531531
 20
5.1604172304
 10
7.5023567023
 20
5.1953875018
 10
7.530601659
 20
5.233002217
 10
7.5566451675
 20
5.2728047845
 10
7.5801710951
 20
5.3143120548
 10
7.6008938687
 20
5.357020186
 10
7.6185619421
 20
5.4004107593
 10
7.6329608487
 20
5.4439570718
 10
7.6439158053
 20
5.4871305303
 10
7.6512938336
 20
5.5294070675
 10
7.6550053742
 20
5.5702735035
 10
7.6550053742
 20
5.6092337752
 10
7.6512938336
 20
5.6458149576
 10
7.6439158053
 20
5.6795730047
 10
7.6329608487
 20
5.7100981396
 10
7.6185619421
 20
5.7370198284
 10
7.6008938687
 20
5.7600112784
 10
7.5801710951
 20
5.7787934044
 10
7.5659312638
 20
5.7882028017
  0
ARC
  5
16F
330
1F
100
AcDbEntity
  8
0
  6
Continuous
 62
     8
370
    15
100
AcDbCircle
 10
6.7340309971
 20
5.7684090985
 30
0.0
 40
0.6569875339888841
100
AcDbArc
 50
301.271732463
 51
358.711560899
  0
LWPOLYLINE
  5
170
330
1F
100
AcDbEntity
  8
0
  6
Continuous
 62
     8
370
    15
100
AcDbPolyline
 90
       34
 70
   128
 43
0.0
 10
6.6938231378
 20
3.8277920364
 10
6.7210786141
 20
3.8150080312
 10
6.7507022455
 20
3.8067388029
 10
6.7823367052
 20
3.8031055647
 10
6.8156773358
 20
3.8041433067
 10
6.850403049
 20
3.8098420348
 10
6.8861794172
 20
3.8201468673
 10
6.9226618942
 20
3.8349585629
 10
6.9594991341
 20
3.8541344768
 10
6.9963363739
 20
3.8774899347
 10
7.032818851
 20
3.9048000106
 10
7.0685952192
 20
3.9358016935
 10
7.1033209324
 20
3.9701964204
 10
7.136661563
 20
4.0076529512
 10
7.1682960226
 20
4.047810559
 10
7.1979196541
 20
4.0902825042
 10
7.2252471656
 20
4.1346597586
 10
7.2500153783
 20
4.1805149451
 10
7.2719857607
 20
4.2274064531
 10
7.2909467261
 20
4.2748826918
 10
7.30671567
 20
4.322486439
 10
7.3191407289
 20
4.3697592447
 10
7.3281022426
 20
4.4162458459
 10
7.3335139069
 20
4.4614985512
 10
7.3353236044
 20
4.5050815523
 10
7.3335139069
 20
4.546575121
 10
7.3281022426
 20
4.5855796517
 10
7.3191407289
 20
4.6217195094
 10
7.30671567
 20
4.6546466475
 10
7.2909467261
 20
4.6840439597
 10
7.2719857607
 20
4.7096283337
 10
7.2500153783
 20
4.731153378
 10
7.2252471656
 20
4.7484117949
 10
7.2250575921
 20
4.7485211128
  0
LWPOLYLINE
  5
171
330
1F
100
AcDbEntity
  8
0
  6
Continuous
 62
     8
370
    15
100
AcDbPolyline
 90
       23
 70
   128
 43
0.0
 10
7.0630685457
 20
4.7411427872
 10
7.0636331709
 20
4.7382543971
 10
7.0690448352
 20
4.6992498663
 10
7.0708545327
 20
4.6577562976
 10
7.0690448352
 20
4.6141732965
 10
7.0636331709
 20
4.5689205912
 10
7.0546716572
 20
4.52243399
 10
7.0422465983
 20
4.4751611844
 10
7.0264776544
 20
4.4275574371
 10
7.007516689
 20
4.3800811984
 10
6.9855463066
 20
4.3331896904
 10
6.9607780939
 20
4.2873345039
 10
6.9334505824
 20
4.2429572495
 10
6.9038269509
 20
4.2004853044
 10
6.8721924913
 20
4.1603276965
 10
6.8388518607
 20
4.1228711657
 10
6.8041261475
 20
4.0884764389
 10
6.7683497793
 20
4.0574747559
 10
6.7318673022
 20
4.03016468
 10
6.6950300624
 20
4.0068092222
 10
6.6581928225
 20
3.9876333082
 10
6.6217103455
 20
3.9728216126
 10
6.6187523252
 20
3.9718077024
  0
LWPOLYLINE
  5
172
330
1F
100
AcDbEntity
  8
0
  6
Continuous
 62
     8
370
    15
100
AcDbPolyline
 90
        9
 70
   128
 43
0.0
 10
6.0429170654
 20
2.9982550127
 10
6.0270018938
 20
3.0100550187
 10
6.0120615357
 20
3.0280559197
 10
6.0008234923
 20
3.0505195714
 10
5.9935522056
 20
3.0769173826
 10
5.9904187759
 20
3.1066281876
 10
5.9914969356
 20
3.1389528629
 10
5.9967613148
 20
3.173130778
 10
6.0060880375
 20
3.2083576941
  0
LWPOLYLINE
  5
173
330
1F
100
AcDbEntity
  8
0
  6
Continuous
 62
     8
370
    15
100
AcDbPolyline
 90
       17
 70
   128
 43
0.0
 10
6.2567069433
 20
3.268205441
 10
6.2597530544
 20
3.2666329963
 10
6.2738782589
 20
3.2629364757
 10
6.2898285005
 20
3.2639437982
 10
6.3069066769
 20
3.269610939
 10
6.3243663899
 20
3.2796902168
 10
6.3414445663
 20
3.2937411188
 10
6.3573948079
 20
3.3111495532
 10
6.3715200125
 20
3.3311546878
 10
6.3832028408
 20
3.3528822023
 10
6.3919326973
 20
3.3753825001
 10
6.3973280454
 20
3.3976722101
 10
6.3991530824
 20
3.4187771651
 10
6.3973280454
 20
3.4377749772
 10
6.3919326973
 20
3.453835351
 10
6.3832028408
 20
3.4662563709
 10
6.374147667
 20
3.4731589562
  0
LWPOLYLINE
  5
174
330
1F
100
AcDbEntity
  8
0
  6
Continuous
 62
     8
370
    15
100
AcDbPolyline
 90
        9
 70
   128
 43
0.0
 10
5.7416189658
 20
3.3610324394
 10
5.7322922431
 20
3.3258055233
 10
5.7270278639
 20
3.2916276082
 10
5.7259497042
 20
3.2593029329
 10
5.7290831339
 20
3.2295921279
 10
5.7363544206
 20
3.2031943167
 10
5.747592464
 20
3.180730665
 10
5.762532822
 20
3.162729764
 10
5.7782931226
 20
3.1510189449
  0
SPLINE
  5
175
330
1F
100
AcDbEntity
  8
0
  6
Continuous
 62
     8
370
    15
100
AcDbSpline
210
0.0
220
0.0
230
1.0
 70
     8
 71
     3
 72
    12
 73
     8
 74
     0
 42
0.000000001
 43
0.00000001
 40
0.0
 40
0.0
 40
0.0
 40
0.0
 40
0.0294647190547513
 40
0.2142682605566208
 40
0.5397387368625092
 40
0.8652060181681837
 40
1.0
 40
1.0
 40
1.0
 40
1.0
 10
7.719498001562439
 20
4.775412676218445
 30
0.0
 10
7.720220541237101
 20
4.776140508037263
 30
0.0
 10
7.725474869947497
 20
4.781433321367878
 30
0.0
 10
7.737064497513234
 20
4.7957566136311
 30
0.0
 10
7.747589100813633
 20
4.819875536418358
 30
0.0
 10
7.750019107022734
 20
4.843358996217169
 30
0.0
 10
7.744240074424384
 20
4.854743496377701
 30
0.0
 10
7.74254760347917
 20
4.858077607307093
 30
0.0
  0
LINE
  5
176
330
1F
100
AcDbEntity
  8
0
  6
Continuous
 62
     8
370
    15
100
AcDbLine
 10
9.8575853249
 20
9.2200434954
 30
0.0
 11
9.8648100552
 21
9.2164191176
 31
0.0
  0
LINE
  5
177
330
1F
100
AcDbEntity
  8
0
  6
Continuous
 62
     8
370
    15
100
AcDbLine
 10
9.6004646643
 20
9.3690226284
 30
0.0
 11
9.5931995389
 21
9.3726821134
 31
0.0
  0
ENDSEC
  0
SECTION
  2
OBJECTS
  0
DICTIONARY
  5
C
330
0
100
AcDbDictionary
281
     1
  3
ACAD_GROUP
350
D
  3
ACAD_LAYOUT
350
1A
  3
ACAD_MLINESTYLE
350
17
  3
ACAD_PLOTSETTINGS
350
19
  3
ACAD_PLOTSTYLENAME
350
E
  3
ACAD_SCALELIST
350
47
  0
DICTIONARY
  5
D
102
{ACAD_REACTORS
330
C
102
}
330
C
100
AcDbDictionary
281
     1
  0
DICTIONARY
  5
1A
102
{ACAD_REACTORS
330
C
102
}
330
C
100
AcDbDictionary
281
     1
  3
Layout1
350
1E
  3
Layout2
350
26
  3
Model
350
22
  0
DICTIONARY
  5
17
102
{ACAD_REACTORS
330
C
102
}
330
C
100
AcDbDictionary
281
     1
  3
Standard
350
18
  0
DICTIONARY
  5
19
102
{ACAD_REACTORS
330
C
102
}
330
C
100
AcDbDictionary
281
     1
  0
ACDBDICTIONARYWDFLT
  5
E
102
{ACAD_REACTORS
330
C
102
}
330
C
100
AcDbDictionary
281
     1
  3
Normal
350
F
100
AcDbDictionaryWithDefault
340
F
  0
DICTIONARY
  5
47
102
{ACAD_REACTORS
330
C
102
}
330
C
100
AcDbDictionary
281
     1
  3
A0
350
48
  3
A1
350
49
  3
A2
350
4A
  3
A3
350
4B
  3
A4
350
4C
  3
A5
350
4D
  3
A6
350
4E
  3
A7
350
4F
  3
A8
350
50
  3
A9
350
51
  3
B0
350
52
  3
B1
350
53
  3
B2
350
54
  3
B3
350
55
  3
B4
350
56
  3
B5
350
57
  3
B6
350
58
  3
B7
350
59
  3
B8
350
5A
  3
B9
350
5B
  3
C0
350
5C
  3
C1
350
5D
  3
C2
350
5E
  3
C3
350
5F
  3
C4
350
60
  3
C5
350
61
  3
C6
350
62
  3
C7
350
63
  3
C8
350
64
  3
C9
350
65
  3
D0
350
66
  3
D1
350
67
  3
D2
350
68
  0
LAYOUT
  5
1E
102
{ACAD_REACTORS
330
1A
102
}
330
1A
100
AcDbPlotSettings
  1

  2
none_device
  4

  6

 40
0.0
 41
0.0
 42
0.0
 43
0.0
 44
0.0
 45
0.0
 46
0.0
 47
0.0
 48
0.0
 49
0.0
140
0.0
141
0.0
142
1.0
143
1.0
 70
   688
 72
     0
 73
     0
 74
     5
  7

 75
    16
147
1.0
148
0.0
149
0.0
100
AcDbLayout
  1
Layout1
 70
     1
 71
     1
 10
0.0
 20
0.0
 11
12.0
 21
9.0
 12
0.0
 22
0.0
 32
0.0
 14
1.0000000000E+20
 24
1.0000000000E+20
 34
1.0000000000E+20
 15
-1.0000000000E+20
 25
-1.0000000000E+20
 35
-1.0000000000E+20
146
0.0
 13
0.0
 23
0.0
 33
0.0
 16
1.0
 26
0.0
 36
0.0
 17
0.0
 27
1.0
 37
0.0
 76
     0
330
1B
  0
LAYOUT
  5
26
102
{ACAD_REACTORS
330
1A
102
}
330
1A
100
AcDbPlotSettings
  1

  2
none_device
  4

  6

 40
0.0
 41
0.0
 42
0.0
 43
0.0
 44
0.0
 45
0.0
 46
0.0
 47
0.0
 48
0.0
 49
0.0
140
0.0
141
0.0
142
1.0
143
1.0
 70
   688
 72
     0
 73
     0
 74
     5
  7

 75
    16
147
1.0
148
0.0
149
0.0
100
AcDbLayout
  1
Layout2
 70
     1
 71
     2
 10
0.0
 20
0.0
 11
0.0
 21
0.0
 12
0.0
 22
0.0
 32
0.0
 14
0.0
 24
0.0
 34
0.0
 15
0.0
 25
0.0
 35
0.0
146
0.0
 13
0.0
 23
0.0
 33
0.0
 16
1.0
 26
0.0
 36
0.0
 17
0.0
 27
1.0
 37
0.0
 76
     0
330
23
  0
LAYOUT
  5
22
102
{ACAD_REACTORS
330
1A
102
}
330
1A
100
AcDbPlotSettings
  1

  2
none_device
  4
Letter_(8.50_x_11.00_Inches)
  6

 40
6.35
 41
6.35
 42
6.35000508
 43
6.35000508
 44
215.9
 45
279.4
 46
0.0
 47
0.0
 48
0.0
 49
0.0
140
0.0
141
0.0
142
1.0
143
1.0
 70
  1712
 72
     0
 73
     0
 74
     0
  7

 75
     0
147
1.0
148
0.0
149
0.0
100
AcDbLayout
  1
Model
 70
     1
 71
     0
 10
0.0
 20
0.0
 11
17.0
 21
11.0
 12
0.0
 22
0.0
 32
0.0
 14
0.0
 24
0.0
 34
0.0
 15
17.0
 25
11.0
 35
0.0
146
0.0
 13
0.0
 23
0.0
 33
0.0
 16
1.0
 26
0.0
 36
0.0
 17
0.0
 27
1.0
 37
0.0
 76
     0
330
1F
331
29
  0
MLINESTYLE
  5
18
102
{ACAD_REACTORS
330
17
102
}
330
17
100
AcDbMlineStyle
  2
Standard
 70
     0
  3

 62
   256
 51
90.0
 52
90.0
 71
     2
 49
0.5
 62
   256
  6
BYLAYER
 49
-0.5
 62
   256
  6
BYLAYER
  0
ACDBPLACEHOLDER
  5
F
102
{ACAD_REACTORS
330
E
102
}
330
E
  0
SCALE
  5
48
102
{ACAD_REACTORS
330
47
102
}
330
47
100
AcDbScale
 70
     0
300
1:1
140
1.0
141
1.0
290
     1
  0
SCALE
  5
49
102
{ACAD_REACTORS
330
47
102
}
330
47
100
AcDbScale
 70
     0
300
1:2
140
1.0
141
2.0
290
     0
  0
SCALE
  5
4A
102
{ACAD_REACTORS
330
47
102
}
330
47
100
AcDbScale
 70
     0
300
1:4
140
1.0
141
4.0
290
     0
  0
SCALE
  5
4B
102
{ACAD_REACTORS
330
47
102
}
330
47
100
AcDbScale
 70
     0
300
1:5
140
1.0
141
5.0
290
     0
  0
SCALE
  5
4C
102
{ACAD_REACTORS
330
47
102
}
330
47
100
AcDbScale
 70
     0
300
1:8
140
1.0
141
8.0
290
     0
  0
SCALE
  5
4D
102
{ACAD_REACTORS
330
47
102
}
330
47
100
AcDbScale
 70
     0
300
1:10
140
1.0
141
10.0
290
     0
  0
SCALE
  5
4E
102
{ACAD_REACTORS
330
47
102
}
330
47
100
AcDbScale
 70
     0
300
1:16
140
1.0
141
16.0
290
     0
  0
SCALE
  5
4F
102
{ACAD_REACTORS
330
47
102
}
330
47
100
AcDbScale
 70
     0
300
1:20
140
1.0
141
20.0
290
     0
  0
SCALE
  5
50
102
{ACAD_REACTORS
330
47
102
}
330
47
100
AcDbScale
 70
     0
300
1:30
140
1.0
141
30.0
290
     0
  0
SCALE
  5
51
102
{ACAD_REACTORS
330
47
102
}
330
47
100
AcDbScale
 70
     0
300
1:40
140
1.0
141
40.0
290
     0
  0
SCALE
  5
52
102
{ACAD_REACTORS
330
47
102
}
330
47
100
AcDbScale
 70
     0
300
1:50
140
1.0
141
50.0
290
     0
  0
SCALE
  5
53
102
{ACAD_REACTORS
330
47
102
}
330
47
100
AcDbScale
 70
     0
300
1:100
140
1.0
141
100.0
290
     0
  0
SCALE
  5
54
102
{ACAD_REACTORS
330
47
102
}
330
47
100
AcDbScale
 70
     0
300
2:1
140
2.0
141
1.0
290
     0
  0
SCALE
  5
55
102
{ACAD_REACTORS
330
47
102
}
330
47
100
AcDbScale
 70
     0
300
4:1
140
4.0
141
1.0
290
     0
  0
SCALE
  5
56
102
{ACAD_REACTORS
330
47
102
}
330
47
100
AcDbScale
 70
     0
300
8:1
140
8.0
141
1.0
290
     0
  0
SCALE
  5
57
102
{ACAD_REACTORS
330
47
102
}
330
47
100
AcDbScale
 70
     0
300
10:1
140
10.0
141
1.0
290
     0
  0
SCALE
  5
58
102
{ACAD_REACTORS
330
47
102
}
330
47
100
AcDbScale
 70
     0
300
100:1
140
100.0
141
1.0
290
     0
  0
SCALE
  5
59
102
{ACAD_REACTORS
330
47
102
}
330
47
100
AcDbScale
 70
     0
300
1/128" = 1'-0"
140
0.0078125
141
12.0
290
     0
  0
SCALE
  5
5A
102
{ACAD_REACTORS
330
47
102
}
330
47
100
AcDbScale
 70
     0
300
1/64" = 1'-0"
140
0.015625
141
12.0
290
     0
  0
SCALE
  5
5B
102
{ACAD_REACTORS
330
47
102
}
330
47
100
AcDbScale
 70
     0
300
1/32" = 1'-0"
140
0.03125
141
12.0
290
     0
  0
SCALE
  5
5C
102
{ACAD_REACTORS
330
47
102
}
330
47
100
AcDbScale
 70
     0
300
1/16" = 1'-0"
140
0.0625
141
12.0
290
     0
  0
SCALE
  5
5D
102
{ACAD_REACTORS
330
47
102
}
330
47
100
AcDbScale
 70
     0
300
3/32" = 1'-0"
140
0.09375
141
12.0
290
     0
  0
SCALE
  5
5E
102
{ACAD_REACTORS
330
47
102
}
330
47
100
AcDbScale
 70
     0
300
1/8" = 1'-0"
140
0.125
141
12.0
290
     0
  0
SCALE
  5
5F
102
{ACAD_REACTORS
330
47
102
}
330
47
100
AcDbScale
 70
     0
300
3/16" = 1'-0"
140
0.1875
141
12.0
290
     0
  0
SCALE
  5
60
102
{ACAD_REACTORS
330
47
102
}
330
47
100
AcDbScale
 70
     0
300
1/4" = 1'-0"
140
0.25
141
12.0
290
     0
  0
SCALE
  5
61
102
{ACAD_REACTORS
330
47
102
}
330
47
100
AcDbScale
 70
     0
300
3/8" = 1'-0"
140
0.375
141
12.0
290
     0
  0
SCALE
  5
62
102
{ACAD_REACTORS
330
47
102
}
330
47
100
AcDbScale
 70
     0
300
1/2" = 1'-0"
140
0.5
141
12.0
290
     0
  0
SCALE
  5
63
102
{ACAD_REACTORS
330
47
102
}
330
47
100
AcDbScale
 70
     0
300
3/4" = 1'-0"
140
0.75
141
12.0
290
     0
  0
SCALE
  5
64
102
{ACAD_REACTORS
330
47
102
}
330
47
100
AcDbScale
 70
     0
300
1" = 1'-0"
140
1.0
141
12.0
290
     0
  0
SCALE
  5
65
102
{ACAD_REACTORS
330
47
102
}
330
47
100
AcDbScale
 70
     0
300
1-1/2" = 1'-0"
140
1.5
141
12.0
290
     0
  0
SCALE
  5
66
102
{ACAD_REACTORS
330
47
102
}
330
47
100
AcDbScale
 70
     0
300
3" = 1'-0"
140
3.0
141
12.0
290
     0
  0
SCALE
  5
67
102
{ACAD_REACTORS
330
47
102
}
330
47
100
AcDbScale
 70
     0
300
6" = 1'-0"
140
6.0
141
12.0
290
     0
  0
SCALE
  5
68
102
{ACAD_REACTORS
330
47
102
}
330
47
100
AcDbScale
 70
     0
300
1'-0" = 1'-0"
140
12.0
141
12.0
290
     0
  0
ENDSEC
  0
EOF
